Incubus - When It Comes Chords & Tabs

 

When It Comes Chords & Tabs

Incubus Chords & Tabs

Version: 2 Type: Tab 0 ratings
1 star 2 stars 3 stars 4 stars 5 stars
comments

When It Comes Tab

   
Author/Artist: Incubus 
Title: When It Comes 
Album: Make Yourself 
Tunning: Standard E,A,D,G,B,E 
Transcribed by: Nowherefast
Email: jiggaryan_notguilty05@hotmail.com 

this is like my first attempt at transcribing something 
so there may be a lot of mistakes 
[ Tab from: http://www.guitartabs.cc/tabs/i/incubus/when_it_comes_tab_ver_2.html ]
Intro 
---------------------------------------  
--------------------------------------- play first 2 times palm muted 
--------------------------------------- then play 2 times as written 
--------------------------------------- 
--------------------------------------- 
-2-2-2-2-2h3p2-2-2--2--2-2222-5-5-3-3-- 
                         ****                                                    
  
Interlude 
--------- 
--------- play 8x 
--------- 
--------- 
-7--5-4-- 
-5--3-2-- 
                                                                               
Verse 
---------------0--------------0--0-- 
---------------0--------------0--0-- play 4x 
---------------4--------------2--2-- 
---------------2--------------2--2-- 
-7\6-5--5-5-5--0----7-6-5-5-5-0--0-- 
------------------------------------ 
 * * *  * * *       * * * * *                                                    
           
Pre-Chorus 
-------------------- 
-------------------- play 6x 
-------------------- 
-------9-9-6-6------ 
-7-7-7-7-7-4-4-7-7-- 
-5-5-5---------5-5-- 
                                                                               
Chorus 
-------------------- 
-------------------- play 6x 
-------------------- 
---------9///////6-- 
-7///////7///////4-- 
-5///////----------- 

Interlude 4x 
Verse 4x 
Pre-Chorus 6x 
Chorus 6x 
                                                                               
Outro pt.1 
----------------------------------------------------- 
----------------------------------------------------- play 1x 
----------------------------------------------------- 
----------------------------------------------------- 
----------------------------------------------------- 
-2-2-2-2-2h3p2-2-2--2--2-2222-55-33-2-2-2-2-2-2-2-2-- 
                         ^________________________^-Octave Pedal                 
             
                         **** 
Outro pt.2 
------------------------ 
------------------------ play 8x 
------------------------ 
------------------------ 
-7--5-4-4--5-4-5-4-5-7-- 
-5--3-2-2--3-2-3-2-3-5--

Comments