Incubus - When It Comes Chords & Tabs

 

When It Comes Chords & Tabs

Incubus Chords & Tabs

Version: 1 Type: Tab 1 rating
1 star 2 stars 3 stars 4 stars 5 stars
comments

When It Comes Tab

Incubus
When it Comes
Make Yourself 


this is all by ear and i think its the closest ive ever gotten.


[ Tab from: http://www.guitartabs.cc/tabs/i/incubus/when_it_comes_tab.html ]
Intro 
---------------------------------------  
--------------------------------------- play first 2 times palm muted 
--------------------------------------- then play 2 times open hand with phase or flanger 
--------------------------------------- 
---5-2-2-2-2h3p2-22-2--2-2-0-2222-3-3--
--------------------------------------- 
                                                                           
                                                                               
Verse 
------------------------------------
------------------------------------
-----7/4-4-2-4---------------------- after fifth time slide egde of pick along e string
-----7/4-4-2-4---------------------- a hair to get that little scratch in there.
-----5/2-2-0-2----------------------    let ring after 8th time
------------------------------------ 
                                                   
           
Pre-Chorus 
-------------------------------------2-----------
--------------0----------------------x----------- play 4x 
--------------4----------------------x-----------
---4----------4----4------------4----4-----------
-----2-2-2-2---------2-2-2-2----4----4-----------
--------------------------------2----2-----------
                                                                               
Chorus 
-----------------------------------------------------
-----------------------------------------------------
----11-11--7-7-9-9-7--5--7-7-9-9-7-------------------play 3x
----11-11--7-7-9-9-7--5--7-7-9-9-7-------------------
----9--9---5-5-7-7-5--3--5-5-7-7-5-------------------
-----------------------------------------------------

------------------------
------------------------
----6~6-----------------play 2x
----6~6--5~5--7~7--4~4--
----4~4--5~5--7~7--4~4--
----4~4--3~3--5~5--2~2--

------------
------------
------------
--5-5-5-----
--5-5-5-----
--3-3-3-----

-----------------------
-----------------------
--------6~6------------
----5~5-6~6-9~9--4~----
----5~5-4~4-9~9--4~----
----3~3-4~4-7~7--2~----

Ending
------------------------------------
------------------------------------
-----7/4-4-2-4-2-4-2-4--4-4-4-4-5-5-
-----7/4-4-2-4-2-4-2-4--4-4-4-4-5-5-
-----5/2-2-0-2-0-2-0-2--2-2-2-2-3-3-    
------------------------------------ 

-------------
-------------
--7/4-2-4----
--7/4-2-4----
--5/2-0-2----
-------------

                       listen to song for exact rhythm and timing.
Comments