Incubus - Warning Chords & Tabs

 

Warning Chords & Tabs

Incubus Chords & Tabs

Version: 8 Type: Tab 0 ratings
1 star 2 stars 3 stars 4 stars 5 stars
comments

Warning Tab

I listened to the cd then i tried playing it and it sounded something like this

 (volume swells)reapeat 2x       try to sorta echo these 
-----------------------------|------------------------------
-----------------------------|------------------------------
--4--6--4--6--4--6-----------|------------------------------
--4--7--4--7--4--7--5--4-----|--4--2--4--2--4---------------
--2--7--2--7--2--7--5--4-----|--4--2--4--2--4---------------
-----5-----5-----5--3--2-----|--2--0--2--0--2---------------



then stum these 
[ Tab from: http://www.guitartabs.cc/tabs/i/incubus/warning_tab_ver_8.html ]
------------------------------------
------------------------------------
--4--6--4--6--4--6------------------
--4--7--4--7--4--7--5--4------------
--2--7--2--7--2--7--5--4------------
-----5-----5-----5--3--2------------

play this little part twice. then end with this 
----------------------------|------------------12-----
--16--12--11--12------------|--15--12--15--14--14-----
----------------------------|-------------------------
----------------------------|-------------------------
----------------------------|-------------------------
----------------------------|-------------------------

and thats about it, it's mostly the same chords throughout the whole song
Comments