Incubus - Warning Chords & Tabs

 

Warning Chords & Tabs

Incubus Chords & Tabs

Version: 7 Type: Tab 0 ratings
1 star 2 stars 3 stars 4 stars 5 stars
comments

Warning Tab

Song: Warning
Album: Morning View
Artist: Incubus

Bat your eyes ... 
E--------------------------------------------------------------
B---------------------------------------------------------------
G--8--6-8--6-8--6-4--3--8--6-8--6-8--6-1--4-----------------------
D--9--7-9--7-9--7-5--4--9--7-9--7-9--7-2--5----------------------------
A--9--7-9--7-9--7-5--4--9--7-9--7-9--7-2--5-------------------------
E--7--5-7--5-7--5-3--2--7--5-7--5-7--5-0--3--------------------------

Over and over ...
x3
E-------------------  --------------------------------------------
B-------------------  ----------------------------------------------
G-------------------  --------------1--1-1--------------------------
D--4-4-4-4-4-4--2-2-  -4-4-4-4-4-4--2--2-2-----------------------------------------
A--4-4-4-4-4-4--2-2-  -4-4-4-4-4-4--2--2-2--------------------------------------
E--2-2-2-2-2-2--0-0-  -2-2-2-2-2-2--0--0-0-------------------------------------
[ Tab from: http://www.guitartabs.cc/tabs/i/incubus/warning_tab_ver_7.html ]
She woke in the morning ...
E--------------------------------------------------------------------
B---------------------------------------------------------------------
G-----------------------------------------------------------------------
D---9--9-9-9--9-9--9-9/7-7-7/9-9--9-9-9--9-9--9-7--7-7/9----------------
A---9--9-9-9--9-9--9-9/7-7-7/9-9--9-9-9--9-9--9-7--7-7/9------------------
E---7--7-7-7--7-7--7-7/5-5-5/7-7--7-7-7--7-7--7-5--5-5/7--------------
She knew that ...
E--------------------------------------------------------------
B----------------------------------------------------------------
G----------------------------------------------------------------
D---9--9-9-9--9-9--9-9/7-7-7-7-7--5--5-5-5--5-5/4-4-4-4-4-4-4-4--------
A---9--9-9-9--9-9--9-9/7-7-7-7-7--5--5-5-5--5-5/4-4-4-4-4-4-4-4------
E---7--7-7-7--7-7--7-7/5-5-5-5-5--3--3-3-3--3-3/2-2-2-2-2-2-2-2------
She called out ...
E--------------------------------------------------------------------
B---------------------------------------------------------------------
G-----------------------------------------------------------------------
D---9--9-9-9--9-9--9-9/7-7-7/9-9--9-9-9--9-9--9-7--7-7/9----------------
A---9--9-9-9--9-9--9-9/7-7-7/9-9--9-9-9--9-9--9-7--7-7/9------------------
E---7--7-7-7--7-7--7-7/5-5-5/7-7--7-7-7--7-7--7-5--5-5/7--------------
Don't ever let ...
E--------------------------------------------------------------
B----------------------------------------------------------------
G----------------------------------------------------------------
D---9--9-9-9--9-9--9-9/7-7-7-7-7--2--2-2-2--2-2/5-5-5-5-5-5-5-5---
A---9--9-9-9--9-9--9-9/7-7-7-7-7--2--2-2-2--2-2/5-5-5-5-5-5-5-5----
E---7--7-7-7--7-7--7-7/5-5-5-5-5--0--0-0-0--0-0/3-3-3-3-3-3-3-3---

E--------------------------------------------
B------------------------------------------
G----------------------------------------
D---9--9-9-9--9-9--9-9/7-7-7/9-9---------
A---9--9-9-9--9-9--9-9/7-7-7/9-9------
E---7--7-7-7--7-7--7-7/5-5-5/7-7---------

3:01 and 3:37
x3
E---------------  --------------12-----------------
B---16-12-11-12-  --15-12-15-14-14---------------------
G---------------  ----------------------------------
D---------------  ------------------------------------
A---------------  ----------------------------------
E---------------  ---------------------------------

Visit my website: http://incubus7.pt.vu 
Comments