Incubus - Warning Chords & Tabs

 

Warning Chords & Tabs

Incubus Chords & Tabs

Version: 2 Type: Tab 0 ratings
1 star 2 stars 3 stars 4 stars 5 stars
comments

Warning Tab

Song: Warning
Band: Incubus
Tabbed By: Wendell Segundo
October 29 2002

Intro:

|-------------------------|
|-------------------------|
|----------8~~---6--------|
|----------0~~---0--------|
|----------6~~---4--------|
|----------7~~---5--------|

|-------------------------|
|-------------------------|
|-------------------------|
|---4-4-4-4-4-4----2-2----|
|---4-4-4-4-4-4----2-2----|
|---2-2-2-2-2-2----0-0----|

Verse:

|-------------------------|
|-------------------------|
|----------8~~---6--------|
|----------0~~---0--------| (2x)
|----------6~~---4--------|
|----------7~~---5--------|

|-------------------------|
|-------------------------|
|----------4~~---3~~------| ((2x))
|----------0~~---0~~------|
|----------2~~---1~~------|
|----------3~~---2~~------|

Pre Chorus:
[ Tab from: http://www.guitartabs.cc/tabs/i/incubus/warning_tab_ver_2.html ]
|-------------------------|
|-------------------------|
|-------------------------|
|---4-4-4-4-4-4----2-2----| (2x)
|---4-4-4-4-4-4----2-2----|
|---2-2-2-2-2-2----0-0----|


Chorus:


|---------------------------|
|---------------------------|
|--4-4-4-4---4---6-6-6-6----|
|--4-4-4-4---4---0-0-0-0----| (3x)
|--2-2-2-2---x---4-4-4-4----|
|------------2---5-5-5-5----|

|---------------------------|
|---------------------------|
|--4-4-4-4---3-3-3-3--------|
|--0-0-0-0---0-0-0-0--------| ((2x))
|--2-2-2-2---1-1-1-1--------|
|--3-3-3-3---2-2-2-2--------|

Outro:

|---12------------|
|------13-12--13--|
|-----------------|
|-----------------|
|-----------------|
|-----------------|

It took me about half an hour trying to figure this out.
I'm about 80% sure about this tab. I'm  willing to accept suggestions.
Any comments, email me at Wendell_Segundo@yahoo.com.....
Comments