Incubus - Warning Chords & Tabs

 

Warning Chords & Tabs

Incubus Chords & Tabs

Version: 12 Type: Tab 0 ratings
1 star 2 stars 3 stars 4 stars 5 stars
comments

Warning Tab

   
-------------------------------------------------------------------------------
			     Warning - Incubus
-------------------------------------------------------------------------------

Tabbed by: Craig Fox
Email: speaker1180_bsc@quackquack.com

Tuning: regular
 

                                      (1---           (2-------
e|-------------------------------------|---------------|---------------------|
B|*------------------------------------|--------------*|---------------------|
G|-------------------------------------|---------------|---------------------|
D|-------------------------------------|---------------|---------------------|
A|*--9-----7-----9-----7------9-----7--|----5-----4---*|----2----5-----------|
E|---7-----5-----7-----5------7-----5--|----3-----2----|----0----3-----------|


e|---------------------------------------------------------------------------|
B|---------------------------------------------------------------------------|
G|---------------------------------------------------------------------------|
D|---------------------------------------------------------------------------|
A|---4---2---4---2---4---2---4---2-------------------------------------------|
E|---2---0---2---0---2---0---2---0-------------------------------------------|


                                      (1---           (2-------
e|-------------------------------------|---------------|---------------------|
B|*------------------------------------|--------------*|---------------------|
G|-------------------------------------|---------------|---------------------|
D|-------------------------------------|---------------|---------------------|
A|*--9-----7-----9-----7------9-----7--|----5-----4---*|----2----5-----------|
E|---7-----5-----7-----5------7-----5--|----3-----2----|----0----3-----------|

dist
e|---------------------------------------------------------------------------|
B|---------------------------------------------------------------------------|
G|---------------------------------------------------------------------------|
D|---------------------------------------------------------------------------|
A|-9---7---9---7---9---7---9---7---------------------------------------------|
E|-7---5---7---5---7---5---7---5---------------------------------------------|

                                      (1---           (2-------
e|-------------------------------------|---------------|---------------------|
B|*------------------------------------|--------------*|---------------------|
G|-------------------------------------|---------------|---------------------|
D|-------------------------------------|---------------|---------------------|
A|*--9-----7-----9-----7------9-----7--|----5-----4---*|----2----5-----------|
E|---7-----5-----7-----5------7-----5--|----3-----2----|----0----3-----------|


e|---------------------------------------------------------------------------|
B|---------------------------------------------------------------------------|
G|---------------------------------------------------------------------------|
D|---------------------------------------------------------------------------|
A|---4---2---4---2---4---2---4---2---4---2-----------------------------------|
E|---2---0---2---0---2---0---2---0---2---0-----------------------------------|


[ Tab from: http://www.guitartabs.cc/tabs/i/incubus/warning_tab_ver_12.html ]
dist                                  (1---           (2-------
e|-------------------------------------|---------------|---------------------|
B|*------------------------------------|--------------*|---------------------|
G|-------------------------------------|---------------|---------------------|
D|-------------------------------------|---------------|---------------------|
A|*--9-----7-----9-----7------9-----7--|----5-----4---*|----2----5-----------|
E|---7-----5-----7-----5------7-----5--|----3-----2----|----0----3-----------|


e|------------------------------------------|--------------------------------|
B|*----------------------------------------*|--------------------------------|
G|------------------------------------------|--------------------------------|
D|------------------------------------------|--------------------------------|
A|*--4---2---4---2---4---2---4---2---4---2-*|--4---2---4---2-----------------|
E|---2---0---2---0---2---0---2---0---2---0--|--2---0---2---0-----------------|


e|---------------------------------------------------------------------------|
B|---------------------------------------------------------------------------|
G|---------------------------------------------------------------------------|
D|---------------------------------------------------------------------------|
A|---9-----7-----9-----7------9-----7------5---------------------------------|
E|---7-----5-----7-----5------7-----5------3---------------------------------|

                                      (1--- (2----    (3-------
e|-------------------------------------|---------------|---------------------|
B|*------------------------------------|--------------*|---------------------|
G|-------------------------------------|---------------|---------------------|
D|-------------------------------------|---------------|---------------------|
A|*--9-----7-----9-----7------9-----7--|----5-----4---*|----2----5-----------|
E|---7-----5-----7-----5------7-----5--|----3-----2----|----0----3-----------|

                                      (1---           (2-------
e|-------------------------------------|---------------|---------------------|
B|*------------------------------------|--------------*|---------------------|
G|-------------------------------------|---------------|---------------------|
D|-------------------------------------|---------------|---------------------|
A|*--9-----7-----9-----7------9-----7--|----5-----4---*|----2----5-----------|
E|---7-----5-----7-----5------7-----5--|----3-----2----|----0----3-----------|


                                      (1---           (2-------
e|-------------------------------------|---------------|---------------------|
B|*------------------------------------|--------------*|---------------------|
G|-------------------------------------|---------------|---------------------|
D|-------------------------------------|---------------|---------------------|
A|*--9-----7-----9-----7------9-----7--|----5-----4---*|----2----5-----------|
E|---7-----5-----7-----5------7-----5--|----3-----2----|----0----3-----------|


the end is mystery to me, i don't have a guitar with me to find out but that 
does it pretty much.


| /  slide up
| \  slide down
| h  hammer-on
| p  pull-off
| ~  vibrato
| +  harmonic
| x  Mute note

===============================================================================
Comments