Incubus - Warning Chords & Tabs

 

Warning Chords & Tabs

Incubus Chords & Tabs

Version: 11 Type: Tab 0 ratings
1 star 2 stars 3 stars 4 stars 5 stars
comments

Warning Tab

This is probably the easiest Incubus song ever and here's basically the
whole song... it's all in these 4 chords B A G and F#

E--------------------------
B-4--------2---------------
G-4--6--4--3---------------
D-4--7--5--4---------------
A-2--7--5--4-----4--2------
E-2--5--3--2-----2--0------
[ Tab from: http://www.guitartabs.cc/tabs/i/incubus/warning_tab_ver_11.html ]
and if you wanna get into depth and go all out... the rest is...

E-11---------------10----10---------
B----12----12---------12----14------
G-------15--------------------------
D-----------------------------------
A-----------------------------------
E-----------------------------------

This tab is 100% correct in my mind at least write back at
jamesotto21@cox.net if you disagree or have any corrections.
Comments