Incubus - Warning Chords & Tabs

 

Warning Chords & Tabs

Incubus Chords & Tabs

Version: 3 Type: Bass Tab 0 ratings
1 star 2 stars 3 stars 4 stars 5 stars
comments

Warning Bass Tab

Tabbed by Chickabee and Rob


G ---------------------------------------------------------------------------|
D ---------------------------------------------------------------------------|
A ---------------------------------------------------------------------------|
E -2-2-2-2-2-2-0-0-2-2-2-2-2-2-0-0-2-2-2-2-2-2-0-0-2-2-2-2-2-2-0-0-----------|

G ---------------------------------------------------------------------------|
D ---------------------------------------------------------------------------|
A ---------------------------------------------------------------------------|
E-7-7-7-7-7-7-5-5-7-7-7-7-7-7-5-5-7-7-7-7-7-7-5-5-3-3-3-3-2-2-2-2------------|

G --------------------------------------------------------------------------|
D --------------------------------------------------------------------------|
A --------------------------------------------------------------------------|
E -7-7-7-7-7-7-5-5-7-7-7-7-7-7-5-5-7-7-7-7-7-7-5-5-0-0-0-0-3-3-3-3----------|

G ---------------------------------------------------------------------------|
D ---------------------------------------------------------------------------|
A ---------------------------------------------------------------------------|
E -7-5-7-5-7-5-3-2-7-5-7-5-7-5-0-3-------------------------------------------|

G --------------------------------------------------------------------------|
D --------------------------------------------------------------------------|
A --------------------------------------------------------------------------|
E -2-2-2-2-2-2-0-0-2-2-2-2-2-2-0-0-2-2-2-2-2-2-0-0-2-2-2-2-2-2-0-0----------|
[ Tab from: http://www.guitartabs.cc/tabs/i/incubus/warning_btab_ver_3.html ]
G ---------------------------------------------------------------------------|
D ---------------------------------------------------------------------------|
A ---------------------------------------------------------------------------|
E-7-7-7-7-7-7-5-5-7-7-7-7-7-7-5-5-7-7-7-7-7-7-5-5-3-3-3-3-2-2-2-2------------|

G ---------------------------------------------------------------------------|
D ---------------------------------------------------------------------------|
A ---------------------------------------------------------------------------|
E -7-7-7-7-7-7-5-5-7-7-7-7-7-7-5-5-7-7-7-7-7-7-5-5-0-0-0-0-3-3-3-3-----------|

G --------------------------------------------------------------------------|
D --------------------------------------------------------------------------|
A --------------------------------------------------------------------------|
E -2-2-2-2-2-2-0-0- (13x)---------------------------------------------------|

G --------------------------------------------------------------------------------|
D --------------------------------------------------------------------------------|
A --------------------------------------------------------------------------------|
E -7-5-7-5-7-5-3-7-7-7-7-7-7-5-5-7-7-7-7-7-7-5-5-7-7-7-7-7-7-5-5-3-3-3-3-2-2-2-2--|


G --------------------------------------------------------------------------|
D --------------------------------------------------------------------------|
A --------------------------------------------------------------------------|
E -7-7-7-7-7-7-5-5-7-7-7-7-7-7-5-5-7-7-7-7-7-7-5-5-0-0-0-0-3-3-3-3----------|

G --------------------------------------------------------------------------|
D --------------------------------------------------------------------------|
A --------------------------------------------------------------------------|
E 7-7-7-7-7-7-5-5-7-7-7-7-7-7-5-5-7-7-7-7-7-7-5-5-3-3-3-3-2-2-2-2-----------|

G ---------------------------------------------------------------------------|
D ---------------------------------------------------------------------------|
A ---------------------------------------------------------------------------|
E -7-7-7-7-7-7-5-5-7-7-7-7-7-7-5-5-7-7-7-7-7-7-5-5-0-0-0-0-3-3-3-3-----------|(3x)
Comments