Incubus - Warmth Chords & Tabs

 

Warmth Chords & Tabs

Incubus Chords & Tabs

Version: 1 Type: Tab 0 ratings
1 star 2 stars 3 stars 4 stars 5 stars
comments

Warmth Tab

Intro/Chorus
[ Tab from: http://www.guitartabs.cc/tabs/i/incubus/warmth_tab.html ]
-|--------------------19------------------------------------------------------
-|-19b-17----17---------------------------------------------------------------
-|--------19----19-16----16---------------------------------------------------
-|----------------------------------------------------------------------------
-|----------------------------------------------------------------------------
-|----------------------------------------------------------------------------
                                                                              
This is the part in intro where Einziger puts some weird effect on
and plays it kinda heavy
-|-12-121212--12-12--8-8-888-3-333-3--0-0-00-0--------------------------------
-|-12-121212--12-12--8-8-888-3-333-3--0-0-00-0--------------------------------
-|----------------------------------------------------------------------------
-|----------------------------------------------------------------------------
-|----------------------------------------------------------------------------
-|----------------------------------------------------------------------------
                                                                              

Verse:  number of times to play each note may not be right but you
get the idea
e|------------------------------------------------------------| 
b|------------------------------------------------------------| 
g|--9--9-9-9-9-9-9-x-x-5--5-5-5-x-----------------------------| 
d|--9--9-9-9-9-9-9-x-x-5--5-5-5-x-5--5-5-5-5-5-5-x-x-2--2-2-2-| 
a|--7--7-7-7-7-7-7-x-x-3--3-3-3-x-5--5-5-5-5-5-5-x-x-2--2-2-2-| 
e|--------------------------------3--3-3-3-3-3-3-x-x-0--0-0-0-| 


Bridge

e|----------------------------------| 
b|----------------------------------| 
g|----------------------------------| 
d|--9-7-9-7-9-7-7-9-9-7-9-7-9-7-7-7-| 
a|----------------------------------| 
e|----------------------------------| 

Solo  Will someone please help me out with this thing?
If you know it post it!!!



Thats it, just listen to the cd or mp3 to learn where to play each 
part.

Keep the faith and lets keep this world rocking
Comments