Incubus - Warmth Acoustic Chords & Tabs

 

Warmth Acoustic Chords & Tabs

Incubus Chords & Tabs

Version: 3 Type: Tab 0 ratings
1 star 2 stars 3 stars 4 stars 5 stars
comments

Warmth Acoustic Tab

Incubus - the warmth (acoustic)
Tabbed by Acoustic021
Sumbitted by AirDog4125


intro & chorus
----------0---------0----------0----------0--------0-------0-------0-------0------
-------17---17---17---17----13---13----13---13---8---8---8---8---5---5---5---5----
----16--------16---------12---------12---------7-------7-------4-------4---------- repeat
----------------------------------------------------------------------------------
----------------------------------------------------------------------------------
----------------------------------------------------------------------------------

verse & last chorus
----0--0-0--0-0-0---0-0-0--0-0---------------------------
----0--0-0--0-0-0---0-0-0--0-0--0--0-0-0--0-0--0-0--0----
----9--9-9--9-9-9---9-9-9--9-9--0--0-0-0--0-0--0-0--0----
----9--9-9--9-9-9---9-9-9--9-9--7--7-7-7--7-7--4-4--4----
----7--7-7--7-7-7---7-7-7--7-7--5--5-5-5--5-5--2-2--2----
--------------------8-8-8--8-8--3--3-3-3--3-3--0-0--0----
[ Tab from: http://www.guitartabs.cc/tabs/i/incubus/warmth_acoustic_tab_ver_3.html ]
solo
----------------------------------------------------------------------------------
----------------------------------------------------------------------------------
----14-14-14--12----12--12-12-12h14--14p12---12-12--11-11-11-11/9--9-11-9h11-9----
----------------------------------------------------------------------------------
----------------------------------------------------------------------------------
----------------------------------------------------------------------------------

-----------------12-15-------------------------------------------
-----------------------12----------------------------------------
----11-11h12-12-------------14--12h14----------------------------
---------------------------------------14--12-11-12-12h14-14/----
-----------------------------------------------------------------
-----------------------------------------------------------------

bridge
-----------------------------------
-----------------------------------
----------------------------------- repeat
--9p7-9p7-9p7-7h9p7-7-9p7-9p7-9p7--
--9p7-9p7-9p7-7h9p7-7-9p7-9p7-9p7--
-----------------------------------

sometimes he throws this in
-----------------
-----------------
-----------------
----9h10-9h10----
----9h10-9h10----
-----------------

outro
-------------------------7---7---7----------
--7b7-5---5---------------------------------
--------7---7---5/4----4---4---4---4--------
--------------------------------------------
--------------------------------------------
--------------------------------------------

end with
------0----
----0------
----4------
-----------
-----------
-----------
Comments