Incubus - Warmth Acoustic Chords & Tabs

 

Warmth Acoustic Chords & Tabs

Incubus Chords & Tabs

Version: 2 Type: Tab 0 ratings
1 star 2 stars 3 stars 4 stars 5 stars
comments

Warmth Acoustic Tab

Incubus 
Make Yourself
Warmth (Acoustic)
Tabbed by Gazie Haze

Intro >
e|------------------------------------------------------------| 
B|------------------------------------------------------------| 
G|-12/9--9-9-9-9-x-x--9--9--9---9--9--------------------------| 
D|-12/9--9-9-9-9-x-x--9--9--9---9--9---0--7-7-7-7-7-x-x--4-4--|   
[ Tab from: http://www.guitartabs.cc/tabs/i/incubus/warmth_acoustic_tab_ver_2.html ]
e|15--12--12-12-12-12-12-12-x--8-8-8--8-8--3--3-3-3-3-3--0-0--| 
B|----12--12-12-12-12-12-12-x--8-8-8--8-8--3--3-3-3-3-3--5-5--| 
G|-----9---9--9--9--9--9--9-x--9-9-9--9-9--4--4-4-4-4-4--0-0--|   
D|------------------------------------------------------------| 
A|------------------------------------------------------------| 
E|------------------------------------------------------------|



e|------------------------------------------------------------| 
B|------------------------------------------------------------| 
G|-12/9--9-9-9-9-x-x--9--9--9---9--9--------------------------| 
D|-12/9--9-9-9-9-x-x--9--9--9---9--9---0--7-7-7-7-7-x-x--4-4--|   
Comments