Incubus - Warmth Acoustic Chords & Tabs

 

Warmth Acoustic Chords & Tabs

Incubus Chords & Tabs

Version: 1 Type: Tab 0 ratings
1 star 2 stars 3 stars 4 stars 5 stars
comments

Warmth Acoustic Tab

song: the warmth acoustic
Incubus
tabbed: by james a.k.a. monkee

intro and chorus:
E------0-----0-----0-----0----0---0---0--0
B----17-17-17-17-13-13-13-13-8-8-8-8-5-5-5
G---16----16----12----12----7---7---4----4
D-----------------------------------------  x2
A-----------------------------------------
E-----------------------------------------

here are the chords...but you're gonna have to figure out the rythem
VERSE:
E--x-x---x-x---x-x---x--x-0
B--5-5---5-5---x-x---x--x-0
G--4-4---4-4---2-2---x--x-0
D--2-2---2-2---0-0---2--2-2  X4
A--x-x---3-3---x-x---2--2-2
E--0-0---x-x---3-3---0--0-0

after the first verse without singing..go back into the verse and play
it ONCE.
[ Tab from: http://www.guitartabs.cc/tabs/i/incubus/warmth_acoustic_tab.html ]
SOLO:
E-------------------------------------------------------------------------
B--0-0--0--10--10-10/8--8-8--8h10-10-10/8--8-8-8p7-7-7p5--5h7-7p5--7-7h8-8
G-------------------------------------------------------------------------
D-------------------------------------------------------------------------
A-------------------------------------------------------------------------
E-------------------------------------------------------------------------

E--12--15-------------------------------
B--------12--10-7/10---5-3-2-3-3/5-5----
G---------------------------------------
D---------------------------------------
A---------------------------------------
E---------------------------------------

bridge is very easy to play, only on chord...but once again, you'll have
to figure out the rythem
Bridge:
E------------
B------------
G---4--------
D---4--------
A---2--------
E------------

Fill: ( at end of song )
E--2/3/2--0---0---------7---7---7--
B-----------3---3--1--0---0---0----
G----------------------------------
D----------------------------------
A----------------------------------
E----------------------------------

heres the rubric to help ya with the whole thing through
intro/chorus:2x
verse:4x
chorus:1x
verse:4x
chorus:2x
solo
verse:4x
bridge
verse:4x....while other guitar is playing the fill
well there ya have it...my way of playing it anyhow..enjoy
Comments