Incubus - Warmth Acoustic Solo Chords & Tabs

 

Warmth Acoustic Solo Chords & Tabs

Incubus Chords & Tabs

Version: 1 Type: Tab 0 ratings
1 star 2 stars 3 stars 4 stars 5 stars
comments

Warmth Acoustic Solo Tab

   
Guitar Solo:
[ Tab from: http://www.guitartabs.cc/tabs/i/incubus/warmth_acoustic_solo_tab.html ]
e:---------------------------------------------------------------------------
B:---------------------------------------------------------------------------
G:-14-14-14-12-12-12-12-12h14-14p12-12-12-12-11-11-11-11\9-9-11-11-9-11-11/12
D:---------------------------------------------------------------------------
A:---------------------------------------------------------------------------
E:---------------------------------------------------------------------------

cont.	e:-12-14------------------------------
	B:-------12---------------------------
	G:----------14-12/14------------------
	D:-------------------12-12-11-12/14-14
	A:------------------------------------
	E:------------------------------------

Chords:

e:----------------------------
B:----------------------------
G:-9-9-9-9-9-5-5--------------
D:-9-9-9-9-9-5-5-5-5-5-5-5-2-2
A:-7-7-7-7-7-3-3-5-5-5-5-5-2-2
E:---------------3-3-3-3-3-0-0
Comments