Incubus - Vitamin Chords & Tabs

 

Vitamin Chords & Tabs

Incubus Chords & Tabs

Version: 3 Type: Tab 0 ratings
1 star 2 stars 3 stars 4 stars 5 stars
comments

Vitamin Tab

   
Author/Artist: Incubus
title: Vitamin
Album: S.C.I.E.N.C.E.
Transcribed by: Ben Bradley (Special thanks to Chase Blair)
Email: supernaut@yourmom.com

Comments by Author: Here you all are, just messing around and 
found out how to play it. Special Thanks to Chase Blair for finding 
out how to play the Distortion part B.

Intro/Verse  -Phaser w/ light distortion-
------------------------------------------------------------------------------
------------------------------------------------------------------------------
------------------------------------------------------------------------------
------------------------------------------------------------------------------
-7-7-----3h5------------------------------------------------------------------
-----0-0------0-0-------------------------------------------------------------
(Corrected version)   16X                                                   
[ Tab from: http://www.guitartabs.cc/tabs/i/incubus/vitamin_tab_ver_3.html ]
Dist. A              This part below w/ phaser
--------------------|---16----------------------------------------------------
--------------------|---16----------------------------------------------------
--------------------|---14----------------------------------------------------
--------------------|---14----------------------------------------------------
-7-7-----3-5--------|---------------------------------------------------------
-0-0-0-0-0-0-0-0-0--|---------------------------------------------------------
 8X                     15X                                                   

--------------------------------|------------------------------|-16-----------
--------------------------------|------------------------------|-16-----------
--------------------------------|------------------------------|-14-----------
--------------------------------|-2-2--------------------------|-14-----------
-7-7-----3-5-----2-3-----0-2----|-2-2--------------------------|--------------
-0-0-0-0-0-0-0-0-0-0-0-0-0-0-0-0|-0-0--------------------------|--------------
 X4                              (End on this on the 4th time)  (Play this part a lotta            
                                                                 times, you'll know)


Song Order:

Intro:  16X
Dist.A: 8X/15X
Verse:  10X
Dist.B: 4X
Verse:  10X
Dist.B: 4X
Bridge: (The weird ass bongo turntable thingy) No guitar
Verse:  10X
Dist.B: 4X
Dist.A: 4X
Comments