Incubus - Vitamin Chords & Tabs

 

Vitamin Chords & Tabs

Incubus Chords & Tabs

Version: 2 Type: Tab 0 ratings
1 star 2 stars 3 stars 4 stars 5 stars
comments

Vitamin Tab

   
Bass tab for: Vitamin
By: Incubus

As heard on S-C-I-E-N-C-E-
Tabbed by Clarky for: hextab.base.org
All feedback and criticism welcome at: clarky17@hotmail.com
Or ICQ me on: 12554263

*riff.1                    |*riff.2
G|---------------------|   |------------------------------|
D|---------------------|x8 |------------------------------|x8
A|---------------------|   |--7-7--------3-5--------------|
E|--0--0--0--00--0--0--|   |-------0-0--------0-0--0-0----|


G|--------------------------------| |---------------------|
D|--------------------------------| |---------------------|x2
A|x1-1-1-1-1-1-1-1-1-1-1-1-1-1-1-1| |---------------------|
E|--------------------------------| |--0--0--0--00--0--0--|
[ Tab from: http://www.guitartabs.cc/tabs/i/incubus/vitamin_tab_ver_2.html ]
*I'm born, I'm alive..     |*riff.3
G|---------------------|   |-----------------------------------------|
D|---------------------|X8 |-----------------------------------------|x4
A|---------------------|   |--7-7-------3-5---------5-5-------0-2----|
E|--0--0--0--00--0--0--|   |-------0-0-------33-33-------1-1------0-0|

Verse 1-riff.1
chorus -riff.3


  *Play muted note first time only.
G|-----------------|
D|-----------------|x4 
A|x1-1-1-1-1-1-1-1-|
E|-----------------|


G|----------------------|   |-----------------------------|
D|----------------------|x4 |-----------------------------|
A|-7--7-----------------|   |-7-777-7---------------------|
E|-----8--7---7-3-(3)/--|   |--------8-88-7-777-7--3-33/--|  


G|-----------|   
D|-----------|   
A|-77----77--|    
E|-00----00--|    

Chorus -riff.3 x4
-riff.4 x4


More to come.
Tell me what you think.
Any requests?
Comments