Incubus - Version Chords & Tabs

 

Version Chords & Tabs

Incubus Chords & Tabs

Version: 2 Type: Tab 0 ratings
1 star 2 stars 3 stars 4 stars 5 stars
comments

Version Tab

Incubus 
"version" 
Enjoy incubus

I think my version sounds pretty close to the real thing so take a look,(my first tab by the way)
any criticism= prodigy_706@yahoo.com  .. Tabbed by the cheapkid,Gerrit

Intro. (use the whammy bar-the bar that bends the strings)  
E|-------3-------------5---------  
B|--------3-----------3----------  
G|---------3---------3-----------  
D|----------5-----5-5------------  
A|-------------------------------  
E|-------------------------------  

main riff  
(strum quickly like a ska song and play along to the strumming pattern, palm mute)
E|---3--xx-3x-3-xx-(repeat)--then-3h5-5
B|---3--xx-3x-3-xx----------------3h5-5
G|-------------------------------------
D|-------------------------------------
A|-------------------------------------
E|-------------------------------------

use distortion  (~time to pay~)
E|-------------------------------------------
B|------------------------------------------- add this the second time
G|---------------------------------------------7-----6--6-6-
D|--88xx8--8x8--(repeat the first time)-then---7-7-6-6--6-6-
A|--88xx8--8x8---------------------------------5-7-6-4--4-4-
E|--66xx6--6x6-----------------------------------5-5---------


Chorus: (strum to the rythm)(~why should we pay~)
E|----x3-3-33-3-------------
B|----x3-3-33-3-------------
G|----x3-3-33-3-------------(repeat)
D|--------------------------
A|-----------------------1--1--
E|-----------------0--0------
[ Tab from: http://www.guitartabs.cc/tabs/i/incubus/version_tab_ver_2.html ]
play this before second verse and then repeat it 3 times before the solo-but..
    (~to carry on~)                              ..end on this chord
E|-----------------------------              E|--------
B|-----------------------------              B|--------
G|--------------------------5--              G|----7----
D|--12--12121212-12----4-4--5--              D|----7---
A|--12--12121212-12----4-4--3--              A|----5---
E|--10--10101010-10--0-2-2-----              E|--------
  
solo
E|------------------------------------------15-15--15----131313--15-----(con't)
B|---6/8---8h10-8h10-8h10------11-13-10-----15-15--15(mute this line with your finger)
G|-------------------------14----------------

E|--15h17h18--p18p17-15-15h17h18--p18p17--15--151515--1717-1818--1717-1818--19--20-
B|------------------
G|------------------


use distortion  (~time to pay~)
E|----------------------------------
B|----------------------------------
G|----------------------------------
D|--8888-8x8-8888-8-8-8-repeat-then-go to the ~why should~ part, use the
A|--8888-8x8-8888-8-8-8-------------   distortion when the song picks up 
E|--6666-6x6-6666-6-6-6-------------

then as "To Carry on" is said with the pauses in between and the heaviness coming on, bar the first fret, 
do so directly above the fret line without pressing down and have the distortion on. and 
you should be able to create the cool sound used for this part.

then of course go back up to ~to carry on~ and end on that last chord I have tabbed out. 

Comments