Incubus - Version Chords & Tabs

 

Version Chords & Tabs

Incubus Chords & Tabs

Version: 2 Type: Bass Tab 0 ratings
1 star 2 stars 3 stars 4 stars 5 stars
comments

Version Bass Tab

BAND: Incubus
SONG: Version
TABLATURE: Bass
TABBED BY: James Trujillo (jtbass3@aol.com)
----------------------------------------------------------------

This is a pretty short song and hopefully it should be 
easy to understand.

Intro/Verse  (play 3x)
G------------------------------------------------------
D------------------------------------------------------
A-------------------------------5-6--5-6--03-5---------
E-----3-3-3-3---6-3---3-3--6-3-------------------------

G------------------------------------------------------
D------------------------------------------------------
A-------------------------------5-6--3-5--01-3---------
E-----3-3-3-3---6-3---3-3--6-3-------------------------

PreChorus
G------------------------------------------------------
D------------------------------------------------------
A------------------------------------------------------
E-----6---6---6-6---6---6---6-6------------------------


Verse (play 2x)
PreChorus (play 1x)


Interlude
G------------------------------------------------------
D------------------------------------------------------
A-------------------5-----4--4-4-----------------------
E-----6---6---6-6-----4-3------------------------------

Chorus (play 3x)
G------------------------------------------------------
D---------------------------------------3--------------
A-------------2-5---------------2-2--5-----------------
E-----3--3-3--------3--3--0--0-------------------------
[ Tab from: http://www.guitartabs.cc/tabs/i/incubus/version_btab_ver_2.html ]
Bridge
G------------------------------------------------------
D------------------------------------------------------
A-----5---5--5-5-5--5-------3--------------------------
E----------------------2-2-----------------------------


Verse (play 2x)
PreChorus (play 1x)
Verse (play 2x)
PreChorus (play 1x)
Interlude (play 1x)
Chorus (play 3x)

On the last time you play this modified part, hold the 
note that i put in (), only play it on the last time. 
It's a held note that leads back into the verse.

Bridge Modified (play 4x)
G------------------------------------------------------
D------------------------------------------------------
A-----5---5--5-5-5--5-------3--3-3-3-3---(5)-----------
E----------------------2-2-----------------------------


Verse/Guitar Solo (play 2x)
PreChorus (play 1x)


PreChorus Modified
G-------------------------------------------------------
D-------------------------------------------------------
A-------------------------------------------------------
E-----6---6---6-6---6---6---6-6-6-----------------------


PreChorus (play 1x)
Interlude (play 1x)
Chorus (play 3x)


G------------------------------------------------------
D------------------------------------------------------
A-------------2-5--------------------------------------
E-----3--3-3--------3--3--0---1------------------------


Chorus (play 2x)


G------------------------------------------------------
D------------------------------------------------------
A-------------2-5--------------------------------------
E-----3--3-3--------3--3--0--0--1-1-1------------------


Bridge Modified (play 3x)


If you have any questions, comments, or corrections about 
this song...email me at JTbass3@aol.com


Comments