Incubus - Under My Umbrella Chords & Tabs

 

Under My Umbrella Chords & Tabs

Incubus Chords & Tabs

Version: 6 Type: Tab 0 ratings
1 star 2 stars 3 stars 4 stars 5 stars
comments

Under My Umbrella Tab

I saw that none of you have the correct tab so I am here to give it.
A great song with great guitar, I love these guys.
Tabbed by:Kalan Marshall / Rolli Mac
Song:Under My Umbrella
Album:Morning view

Intro/Chorus

^ down v up
                    x2  then                    x2
e:--------------------|---------------------------|
B:--------------------|---------------------------|
G:-10-10-10--10-10-10-|--10-10-10--10-10-10-------|
D:-x--x--x---x--x--x--|--x--x--x---x--x--x--------|
A:-8--8--8---8--8--8--|--8--8--8---8--8--8--------|
E:--------------------|--9--9--9---9--9--9--------|
   v  ^  v   v  ^  v     v  ^  v   v  ^  v

e:------------------------------------------|
B:------------------------------------------|
G:-----------------------------10-10-10-----|
D:-----------------------------x--x--x------|
A:---3-3-3---3-3-3---3-3-3-----8--8--8------|
E:-0-1-1-1-0-1-1-1-0-1-1-1------------------|

Once done this repeat it then when you go to finsih it do this
e:-44444---------------|---------------------13--13--13-13-|
B:-44444---------------|-----------------------------------|
G:-44444--6/-8-8--666--|---------------------13--13--13-13-|
D:-66666--6/-8-8--666--|-----------------------------------|
A:-66666--4/-6-6--444--|-x/___________/x-------------------|
E:-44444---------------|-x/___________/x-------------------|
                         @ 25 seconds in, a slide mute

Verse has an efect in it
e:-------------------13--------------------------------------13-|
B:--------------------------------------------------------------|
G:-10-10-8-8---------13-----10-10-8-8--------10-10-8-8-8-----13-|
D:--------------------------------------------------------------|
A:-------------11-----------------------10----------------11----|
E:--------------------------------------------------------------|
[ Tab from: http://www.guitartabs.cc/tabs/i/incubus/under_my_umbrella_tab_ver_6.html ]
e:-----------------13-----------------------|
B:------------------------------------------|
G:-10-10-8-8-------13-----------------------|
D:-----------10-----------------------------|
A:------------------------------------------|
E:------------------------------------------|
Then the Chorus...Intro/Chorus

The second verse is a bit different

e:-------------------13-------------------13--------------------|
B:--------------------------------------------------------------|
G:-10-10-8-8---------13-----10-10-8-8-----13--10-10-8-8---------|
D:--------------------------------------------------------------|
A:-------------11-----------------------10----------------11----|
E:--------------------------------------------------------------|

e:------------------------------------------|
B:------------------------------------------|
G:-10-10-8-8--------------------------------|
D:-----------10-----------------------------|
A:------------------------------------------|
E:------------------------------------------|

Back to Chorus, Bridge #1
w/Flanger                 x3      then
e:----------__------------------|------------------------|
B:---------|--|-----------------|------------------------|
G:-13-13--13-\10-10-10--6-6-666-|-888-6-666-444444444----|
D:-13-13--13-\10-10-10--6-6-666-|-888-6-666-444444444----|
A:-11-11--11-\8--8--8---4-4-444-|-666-4-444-222220202----|
E:------------------------------|------------------------|

2:28
w/flanger & Heavy Reaver
e:-----------------------------------------------------|
B:-----------------------------------------------------|
G:3h555555555-/-13-13-13-13-13-13-13-9999999999--7/9\7-|
D:-----------------------------------------------------|
A:-----------------------------------------------------|
E:-----------------------------------------------------|

Back to chorus then bridge again
Hope you enjoy if you have any questions give me an e-mail at
Canadianrocker_@hotmail.com

www.EnjoyIncubus.com
www.Incubus-online-view.com
Comments