Incubus - Under My Umbrella Chords & Tabs

 

Under My Umbrella Chords & Tabs

Incubus Chords & Tabs

Version: 4 Type: Tab 0 ratings
1 star 2 stars 3 stars 4 stars 5 stars
comments

Under My Umbrella Tab

   
------------------------------------------------------------
		Under My Umbrella - Incubus
------------------------------------------------------------

By: Jake Soucie

Intro/Chorus    (DISTORTION)
         X4
e|-------------|------------------------------------------|
B|-------------|------------------------------------------|
G|-x-10-10-10--|-x-6-6-6-x-6-6-6--------------------------|
D|-x-10-10-10--|-x-6-6-6-x-6-6-6-x-11-11-11-x-11-11-11-x--|
A|-x-8--8--8---|-x-4-4-4-x-4-4-4-x-11-11-11-x-11-11-11-x--|
E|-------------|-----------------x-9--9--9--x-9--9--9--x--|
Then
     X4
e|---------|-----------------------|
B|---------|-----------------------|
G|---------|-101010-------888/66\8-|
D|-x-3-3-3-|-101010-66666-888/66\8-|
A|-x-3-3-3-|-8-8-8--66666-666/44\6-|
E|-x-1-1-1-|--------44444----------|
[ Tab from: http://www.guitartabs.cc/tabs/i/incubus/under_my_umbrella_tab_ver_4.html ]
Verse  (CLEAN)
          X3                  X1
e|--------------------|------------------|
B|--------------------|------------------|
G|--10--10--8--8--1---|--10--10--8--8--5-|
D|--------------------|------------------|
A|--------------------|------------------|
E|--------------------|------------------|
   \go with the words/
Riff A (after the second and third chorus)(not sure about the fx)
                     (---Riff-B---) 
e|-----------------|  |---------|
B|-----------------|  |---------|
G|--------888888/6-|  |-88888/6-|
D|-6666-3-888888/6-|  |-88888/6-|
A|-6666-3-666666/4-|  |-66666/4-|
E|-4444-1----------|  |---------|

Little Solo part X2 (not sure about fx)
<>=let ring
^=bend
e|---------------------------------------------------------|
B|---------------------------------------------------------|
G|--<5>/<12>-<9>-7h9p7--<5>/<12>-<9>-^7--------------------|
D|---------------------------------------------------------|
A|---------------------------------------------------------|
E|---------------------------------------------------------|

Order

Intro X1
Verse X1
Chorus X2
Verse X1
Chorus X2
Riff A X3
Riff B X1
Solo part X2
Chorus X2
Riff A X3
Riff B X1
============================================================
Comments