Incubus - Under My Umbrella Chords & Tabs

 

Under My Umbrella Chords & Tabs

Incubus Chords & Tabs

Version: 1 Type: Tab 0 ratings
1 star 2 stars 3 stars 4 stars 5 stars
comments

Under My Umbrella Tab

#----------------------------------PLEASE NOTE--------------------------------#
#This file is the author's own work and represents their interpretation of the#
#song. You may only use this file for private study, scholarship, or research.#
#-----------------------------------------------------------------------------#
#-- File created with Instab - http://www.pconline.com/~smcarey/instab.html --#
#-----------------------------------------------------------------------------#
[ Tab from: http://www.guitartabs.cc/tabs/i/incubus/under_my_umbrella_tab.html ]
Author/Artist: Incubus
Title: Under my Umbrella
Album: Morning View
Transcribed by: Noodles
Email: DarkHatchling791@aol.com
Very sweet song. One of their best from Morning View.
Drop D tuning
Guitar: Any electric
Effects: Distortion, and im not sure which effect is used for the breakdown.
You figure it out.
Either a Phaser or Flanger or Echo or something like that.
------------------------------------------------------------------------------
------------------------------------------------------------------------------
--x-10101010---x-6666----------10-10---------6-8888666666---------------------
--x-10101010---x-6666---66666--10-10--11111--6-8888666666---------------------
--x-8-8-8-8----x-4444---66666--8--8---11111--4-6666444444---------------------
------------------------66666---------11111-----------------------------------
    Intro and Chorus (same thing)                                             

------------------------------------------------------------------------------
------------------------------------------------------------------------------
--x-10101010---x6666------------10-10---------6-8888-666666-------------------
--x-10101010---x6666--66666666--10-10--11111--6-8888-666666-------------------
--x-8-8-8-8----x4444--66666666--8--8---11111--4-6666-444444-------------------
----------------------66666666---------11111----------------------------------
  Intro and chorus cont'd                                                     

------------------------------------------------------------------------------
------------------------------------------------------------------------------
-----------------6666-88888-66666666------------------------------------------
---666666--1111--6666-88888-66666666------------------------------------------
---666666--1111--4444-66666-44444444------------------------------------------
---666666--1111---------------------------------------------------------------
Breakdown                                                                     

Song order:
IaC (intro and chorus) x2
Verse, no guitar
IaC x2
Verse, no guitar
IaC x2
Breakdown x4
Little Interlude, no guitar
AiC x2
Breakdown x4
Ends on C# power chord x466xx


Comments