Incubus - Under My Umbrella Chords & Tabs

 

Under My Umbrella Chords & Tabs

Incubus Chords & Tabs

Version: 2 Type: Bass Tab 0 ratings
1 star 2 stars 3 stars 4 stars 5 stars
comments

Under My Umbrella Bass Tab

   
----------------------------------------------------------------------------
			     UNDER MY UMBRELLA - Incubus
----------------------------------------------------------------------------

Tabbed By : Matt	
e-mail: spacedout11x@yahoo.com

Tuning: standard BEADG

intro
G|-------------------------------------------------------------------|
D|-------------------------------------------------------------------|
A|-8-8-8---8-8-8---8-8-8---8-8-8---4-4-4---4-4-4---4-4-4---4-4-4-----|
E|-------------------------------------------------------------------|
B|-------------------------------------------------------------------|

G|----------------------------------------------------------------------|
D|----------------------------------------------------------------------|
A|----------------------------------------4-6-6-6-4-4-4-4---------------|
E|-1-1-1---1-1-1---1-1-1---1-1-1-4--------------------------------------|
B|----------------------------------------------------------------------|


verse
G|----------------------------------------------------------------------|
D|----------------------------------------------------------------------|
A|-4-----4-----------------------4-----4-----------------3-3------------|
E|--------------------------6-6----------------------4-4----------------|
B|---6-6---6-6---6---6-8-8---------6-6---6-6---6---6--------------------|

G|----------------------------------------------------------------------|
D|----------------------------------------------------------------------|
A|-4-----4--------------------------------------------------------------|
E|--------------------------6-6---4-----4-------------------------------|
B|---6-6---6-6---6---6-8-8----------6-6---6-6---6---6-6-6-5-5-----------|

[ Tab from: http://www.guitartabs.cc/tabs/i/incubus/under_my_umbrella_btab_ver_2.html ]
chorus
G|----------------------------------------------------------------------|
D|----------------------------------------------------------------------|
A|-8-8-8---8-8-8---8-8-8---8-8-8---4-4-4---4-4-4---4-4-4---4-4-4--------|
E|----------------------------------------------------------------------|
B|----------------------------------------------------------------------|

G|----------------------------------------------------------------------|
D|----------------------------------------------------------------------|
A|----------------------------------------4-6-6-6-4-4-4-4---------------|
E|-1-1-1---1-1-1---1-1-1---1-1-1-4--------------------------------------|
B|----------------------------------------------------------------------|

G|----------------------------------------------------------------------|
D|----------------------------------------------------------------------|
A|-8-8-8---8-8-8---8-8-8---8-8-8---4-4-4---4-4-4---4-4-4---4-4-4--------|
E|----------------------------------------------------------------------|
B|----------------------------------------------------------------------|

G|----------------------------------------------------------------------|
D|----------------------------------------------------------------------|
A|---------------------------------8-8-8-8-8-8-4-6-6-6-4-4-4-4-4--------|
E|-4-4-4---4-4-4---4-4-4---4-4-4----------------------------------------|
B|----------------------------------------------------------------------|


post chorus
G|-------------------------------|
D|-------------------------------|
A|-----------4-4-6-6-6-4-4-4-4-4-|  
E|-4-4---------------------------|
B|-----6-6-6---------------------| x3

G|-----------------|
D|-----------------|
A|---------------9-|
E|-7-7-7-7-7-7-7---|
B|-----------------|


bridge
G|-------------------------------|
D|-------------------------------|
A|---------------3-3-3-3-3-------|
E|-------------4-----------4---4-|
B|-6-6-6-6-6-6-------------------| 


| /  slide up
| \  slide down
| h  hammer-on
| p  pull-off
| ~  vibrato
| +  harmonic
| x  Mute note
============================================================================
Comments