Incubus - The Warmth Chords & Tabs

 

The Warmth Chords & Tabs

Incubus Chords & Tabs

Version: 8 Type: Tab 0 ratings
1 star 2 stars 3 stars 4 stars 5 stars
comments

The Warmth Tab

Incubus - the warmth (acoustic)
tabbed by Christian Strowitzki


intro

riff1
-----12----12----12----12---8---8---8---8--
--12----12----12----12----8---8---8---8----
-------------------------------------------  
-------------------------------------------
-------------------------------------------
-------------------------------------------

riff1 (continued)
-------------------------------------------
----8---8---8---8---5---5---5---5----------
--7---7---7---7---4---4---4---4------------  riff1 4x
-------------------------------------------
-------------------------------------------
-------------------------------------------

riff2
------------------------------------------------------------
------------------------------------------------------------
--9-9-9--9--9-9--5-5--5--5-5------------------------------4x
--9-9-9--9--9-9--5-5--5--5-5--5--5-5--5--5-5--2-2--2--2-2---
--7-7-7--7--7-7--3-3--3--3-3--5--5-5--5--5-5--2-2--2--2-2---
------------------------------3--3-3--3--3-3--0-0--0--0-0---

riff1
-----12----12----12----12---8---8---8---8--
--12----12----12----12----8---8---8---8----
-------------------------------------------  
-------------------------------------------
-------------------------------------------
-------------------------------------------

riff1 (continued)
-------------------------------------------
----8---8---8---8---5---5---5---5----------
--7---7---7---7---4---4---4---4------------  riff1 1x
-------------------------------------------
-------------------------------------------
-------------------------------------------


verse 1 (riff2)

------------------------------------------------------------
------------------------------------------------------------
--9-9-9--9--9-9--5-5--5--5-5------------------------------4x
--9-9-9--9--9-9--5-5--5--5-5--5--5-5--5--5-5--2-2--2--2-2---
--7-7-7--7--7-7--3-3--3--3-3--5--5-5--5--5-5--2-2--2--2-2---
------------------------------3--3-3--3--3-3--0-0--0--0-0---


chorus 1

riff1
-----12----12----12----12---8---8---8---8--
--12----12----12----12----8---8---8---8----
-------------------------------------------  
-------------------------------------------
-------------------------------------------
-------------------------------------------

riff1 (continued)
-------------------------------------------
----8---8---8---8---5---5---5---5----------
--7---7---7---7---4---4---4---4------------  riff1 4x
-------------------------------------------
-------------------------------------------
-------------------------------------------


solo

-----------------------------------------------------
-----------------------------------------------------
---14-14-14--12----12--12-12-12h14--14-12---12-12----
-----------------------------------------------------
-----------------------------------------------------
-----------------------------------------------------
[ Tab from: http://www.guitartabs.cc/tabs/i/incubus/the_warmth_tab_ver_8.html ]
------------------------------------------12-15------
------------------------------------------------12---
---11-11-11-11p9--9-11-12-9--11-11h12-12-------------
-----------------------------------------------------
-----------------------------------------------------
-----------------------------------------------------

-----------------------------------------------------
-----------------------------------------------------
---14--12h14----9--7-6-7--7h9--9-9-------------------
-----------------------------------------------------
-----------------------------------------------------
-----------------------------------------------------


verse 2 (riff2)

------------------------------------------------------------
------------------------------------------------------------
--9-9-9--9--9-9--5-5--5--5-5------------------------------4x
--9-9-9--9--9-9--5-5--5--5-5--5--5-5--5--5-5--2-2--2--2-2---
--7-7-7--7--7-7--3-3--3--3-3--5--5-5--5--5-5--2-2--2--2-2---
------------------------------3--3-3--3--3-3--0-0--0--0-0---


chorus 2

riff1
-----12----12----12----12---8---8---8---8--
--12----12----12----12----8---8---8---8----
-------------------------------------------  
-------------------------------------------
-------------------------------------------
-------------------------------------------

riff1 (continued)
-------------------------------------------
----8---8---8---8---5---5---5---5----------
--7---7---7---7---4---4---4---4------------  riff1 4x
-------------------------------------------
-------------------------------------------
-------------------------------------------


bridge
-----------------------------------
-----------------------------------
-----------------------------------  12x
--9p7-9p7-9p7-7h9p7-7-9p7-9p7-9p7--
--9p7-9p7-9p7-7h9p7-7-9p7-9p7-9p7--
-----------------------------------


chorus 3 (riff2)

------------------------------------------------------------
------------------------------------------------------------
--9-9-9--9--9-9--5-5--5--5-5------------------------------4x
--9-9-9--9--9-9--5-5--5--5-5--5--5-5--5--5-5--2-2--2--2-2---
--7-7-7--7--7-7--3-3--3--3-3--5--5-5--5--5-5--2-2--2--2-2---
------------------------------3--3-3--3--3-3--0-0--0--0-0---


outro

riff2
------------------------------------------------------------
------------------------------------------------------------
--9-9-9--9--9-9--5-5--5--5-5------------------------------2x
--9-9-9--9--9-9--5-5--5--5-5--5--5-5--5--5-5--2-2--2--2-2---
--7-7-7--7--7-7--3-3--3--3-3--5--5-5--5--5-5--2-2--2--2-2---
------------------------------3--3-3--3--3-3--0-0--0--0-0---

-------------------------7---7---7----------
--7b7-5---5---------------------------------
--------7---7---5/4----4---4---4---4--------  4x
--------------------------------------------
--------------------------------------------
--------------------------------------------
Comments