Incubus - The Warmth Chords & Tabs

 

The Warmth Chords & Tabs

Incubus Chords & Tabs

Version: 5 Type: Tab 0 ratings
1 star 2 stars 3 stars 4 stars 5 stars
comments

The Warmth Tab

   
(standard tuning)
b=bend
verse
(w/delay and flanger)
|-----------------------19-|
|-19b-17----17-------------|
|--------19----19-17-16----|
|--------------------------|
|--------------------------|
|--------------------------|
[ Tab from: http://www.guitartabs.cc/tabs/i/incubus/the_warmth_tab_ver_5.html ]
chorus (w/dist. and slow chorus)
|12-12-12-12-8-8-8-8-3-3-3-3-0-3-0-0-0-0-|
|12-12-12-12-8-8-8-8-3-3-3-3-0-3-0-0-0-0-|
|----------------------------------------|
|----------------------------------------|
|----------------------------------------|
|----------------------------------------|
Comments