Incubus - The Warmth Chords & Tabs

 

The Warmth Chords & Tabs

Incubus Chords & Tabs

Version: 4 Type: Tab 0 ratings
1 star 2 stars 3 stars 4 stars 5 stars
comments

The Warmth Tab

incubus
the warmth
standard tuning
tabbed by qwirkwergus (qwirkwergus@yahoo.com)

opening and verses, w/ delay and chorus effects
|--------------------------19----|
|-19br-17-15-17-15---------------|
|-------------------17--16----16-|
|--------------------------------|
|--------------------------------|
|--------------------------------|

chorus, w/ heavy delay and some other wierd effects (notes in
parenthesis are sounded by the delay)
|--0--(-0)--0--(-0)--0--(-0)--0--(-0)--0--(-0)--
|-17--(17)-17--(17)-17--(17)-12--(12)-12--(12)--
|-16--(16)-16--(16)-16--(16)-13--(13)-13--(13)--
|-----------------------------------------------
|-----------------------------------------------
|-----------------------------------------------

|0--(0)-0--(0)-0--(0)-0--(0)-0--(0)-|
|8--(8)-8--(8)-8--(8)-5--(5)-5--(5)-|
|7--(7)-7--(7)-7--(7)-4--(4)-4--(4)-|
|-----------------------------------|
|-----------------------------------|
|-----------------------------------|
[ Tab from: http://www.guitartabs.cc/tabs/i/incubus/the_warmth_tab_ver_4.html ]
refraim (w/ several swirling effects), first w/ light 
distortion, then w/ heavy distortion
|----------------------------------|
|---------------------------------.|
|----------------------------------|
|-9p7-9p7-9p7-9-9p7-9p7-9-9p7-9p7--|
|---------------------------------.|
|----------------------------------|

|------------------------------------|
|------------------------------------|
|------------------------------------|
|-9p7-9p7-9p7-9-9p7-9-9h10-9h10-9h10-|
|------------------------------------|
|------------------------------------|

|---------------------------------------|
|---------------------------------------|
|---------------------------------------|
|-9h10-9h10-9h10-9h10-9h10-9h10-9h10-9\-|
|---------------------------------------|
|---------------------------------------|

last chorus w/ heavy distortion
|--------------------------------------|
|--------------------------------------|
|--------------------------------------|
|-9--9--9-9--9-9--9--7--7--7-7--4-4--4-|
|-7--7--7-7--7-7--7--5--5--5-5--2-2--2-|
|-0--0--0-0--8-8--8--3--3--3-3--0-0--0-|

lead guitar during last chorus, w/ distortion & chorus
|--------------------------------------|
|----------------------12---12---12---.| 
|-11br-9----9--------------------------|
|--------12---12--10-9----9----9----9--|
|-------------------------------------.|
|--------------------------------------|
Comments