Incubus - The Warmth Chords & Tabs

 

The Warmth Chords & Tabs

Incubus Chords & Tabs

Version: 3 Type: Tab 0 ratings
1 star 2 stars 3 stars 4 stars 5 stars
comments

The Warmth Tab

   
----------------------------------------------------------------------------------------------

	     SONG: The Warmth
	     BAND: Incubus
	    ALBUM: Make Yourself
   TRANSCRIBED BY: Paul De Jaegher (www.angelfire.com/bc/tablature)
	     DATE: January 12, 1999


----------------------------------------------------------------------------------------------

	TUNING: standard (E,A,D,G,B,E)
 

     INTRO: (with echo effects)

    E|-------------------------------19----19----19--|
    B|--19b-17----17---------------------------------|
    G|---------19----19-----17-17-16----16----16-----|
    D|-----------------------------------------------|
    A|-----------------------------------------------|
    E|-----------------------------------------------|

     FILL: (before first verse)
[ Tab from: http://www.guitartabs.cc/tabs/i/incubus/the_warmth_tab_ver_3.html ]
    E|--12--12-12--12----8--8-8--8------------------------------|
    B|--12--12-12--12----8--8-8--8----8--8-8--8----8/10-10-5-5--|
    G|--------------------------------7--7-7--7----7/-9--9-4-4--|
    D|----------------------------------------------------------|
    A|----------------------------------------------------------|
    E|----------------------------------------------------------|

     VERSE: (with echo effects)

    E|-------------------------------19----19----19--|
    B|--19b-17----17---------------------------------|
    G|---------19----19-----17-17-16----16----16-----|
    D|-----------------------------------------------|
    A|-----------------------------------------------|
    E|-----------------------------------------------|

     CHORUS:

   
E|-------------------------------------------------------------------|
   
B|-------------------------------------------------------------------|
   
G|------------------------------------12--12-12--12------------------|
   
D|--14--14-14--14----10--10-10--10----12--12-12--12---14--14-14--14--|
   
A|--14--14-14--14----10--10-10--10----10--10-10--10---14--14-14--14--|
   
E|--12--12-12--12-----8---8--8---8----10--10-10--10---12--12-12--12--|







Comments