Incubus - The Warmth Chords & Tabs

 

The Warmth Chords & Tabs

Incubus Chords & Tabs

Version: 2 Type: Tab 1 rating
1 star 2 stars 3 stars 4 stars 5 stars
comments

The Warmth Tab

Title: The Warmth 
Artist: Incubus 
Album: Make Yourself 
Tabbed By: Steve L. (volcom2117@yahoo.com) 

key: 
b: bend up 1/2 step 
r: return to orginal note 
/: slide 
x: don't play string 
h: hammer on 
p: pull off 

Notes for perfectionists who want the full effect: 

Here are the settings I've come up with to fully acheive the sounds heard in 
this song. 
Guitar: Roll the tone down a little and switch to neck pickup 
Amp: Medium Bass, low mid, medium treb, along with heavy gain for choruses 

Effects: 
Phaser: For intro and verse - rate 66, depth 56, level 77 
Chorus: Optional for whole song - depth 63, pre delay 4ms, high cut 2khz, level 100 
Delay: Optional for intro/verse - 275ms, feedback 19, high cut 8khz, level 50 


Intro/verse lick: (whales singing then at 0:16 12x, played clean) 

e|--------------------------------------19-----------------------------------| 
B|---19b20r19-17------17-----------------------------------------------------| 
G|----------------19------19--17/16--16----16--------------------------------| 
D|---------------------------------------------------------------------------| 
A|---------------------------------------------------------------------------| 
E|---------------------------------------------------------------------------| 

Lead into verse: 0:55 (w/ optional wah 1x)(light dist.) 

e|-12--12-12--12-12--12//8--8-8--8---3--3-3--3-3--3--0--0-0--0---------------| 
B|-12--12-12--12-12--12//8--8-8--8---3--3-3--3-3--3--0--0-0--0---------------| 
G|--9---9--9---9--9---9//5--5-5--5---0--0-0--0-0--0--x--x-x--x---------------| 
D|---------------------------------------------------------------------------| 
A|---------------------------------------------------------------------------| 
E|---------------------------------------------------------------------------| 

For first & second chorus: Play above riff 4x with slightly heavier attack 

Bridge: (With flange*, dist, delay, 2:48) 

Just repeat as neccesary until next chorus at 3:28 
[ Tab from: http://www.guitartabs.cc/tabs/i/incubus/the_warmth_tab_ver_2.html ]
e|---------------------------------------------------------------------------| 
B|---------------------------------------------------------------------------| 
G|---------------------------------------------------------------------------| 
D|---------------------------------------------------------------------------| 
A|-14p12--14p12---14p12--14p12--14-14p12--14p12------------------------------| 
E|---------------------------------------------------------------------------| 

End of Bridge right before last Chorus: (3:25) 
e|---------------------------------------------------------------------------| 
B|---------------------------------------------------------------------------| 
G|---------------------------------------------------------------------------| 
D|---------------------------------------------------------------------------| 
A|--14 14h15---14h15--14h15--14h15-------------------------------------------| 
E|---------------------------------------------------------------------------| 

Last Chorus: (with heavy dist 2x) 

e|--7--------3-------3-------0-----------------------------------------------| 
B|--7--------3-------3-------0-----------------------------------------------| 
G|--9--------5-------4-------1-----------------------------------------------| 
D|--9--------5-------5-------2-----------------------------------------------| 
A|--7--------3-------5-------2-----------------------------------------------| 
E|--7--------3-------3-------0-----------------------------------------------| 

Last two measures of chorus: (lead guitar w/ dist and delay) 
e|---------------------------7-----------------------------------------------| 
B|--7b8r7--5----5------------------------------------------------------------| 
G|-----------7----7--5--4--4---4---------------------------------------------| 
D|---------------------------------------------------------------------------| 
A|---------------------------------------------------------------------------| 
E|---------------------------------------------------------------------------|
 
 
Comments