Incubus - The Warmth Easy Chords & Tabs

 

The Warmth Easy Chords & Tabs

Incubus Chords & Tabs

Version: 1 Type: Tab 0 ratings
1 star 2 stars 3 stars 4 stars 5 stars
comments

The Warmth Easy Tab

Tabbed By: Dom Pino
email: dom_the_tabmeister@hotmail.com 
Tuning: Standard
h = Hammer On
p = Pull Off              The Warmth Tab
                    
			    Intro/Verse Riff: With Delay/Phase
        
E-14h15p14-------------------19----------------------------------
B----------17-15-17-15-------------------------------------------
G----------------------17-16-------------------------------------
D-----------------------------------------------------------------
A-----------------------------------------------------------------
E-----------------------------------------------------------------


	Chorus: There are two guitar parts on separate tracks here. Lead = 1*, Rhythm (at a much quieter volume) = 2*

	Riff 1*:
[ Tab from: http://www.guitartabs.cc/tabs/i/incubus/the_warmth_easy_tab.html ]
E-----------------------------------------------------------------
B-----------------------------------------------------------------
G-16--16-16--16-16-10-10--10-10-10--5--5-5--5-5-2-2--2-2--2----
D-14--14-14--14-14-12-12--12-12-12--7--7-7--7-7-4-4--4-4--4----
A-----------------------------------------------------------------
E-----------------------------------------------------------------

	Riff 2*: 

E-----------------------------------------------------------------
B-----------------------------------------------------------------
G-9--9-9--9-9-5-5--5-5--5----------------------------------------
D-9--9-9--9-9-5-5--5-5--5--5--5-5--5-5-2-2--2-2--2--------------
A-7--7-7--7-7-3-3--3-3--3--5--5-5--5-3-2-2--2-2--2---------------
E--------------------------3--3-3--3-3-0-0--0-0--0---------------



	Bridge: This little riff is a HUGE extension of one big hammer on and pull off. Very easy.

					(repeats 12x)

E-----------------------------------------------------------------
B-----------------------------------------------------------------
G-4-p2-h4-p2-h4-p2-h4-4-p2-h4-4-p2-4-p2-h4-p2------------------
D-----------------------------------------------------------------
A-----------------------------------------------------------------
E-----------------------------------------------------------------

For the end of the song, the Chorus repeats, and the Intro/Verse riff is played over it one octave lower.
Comments