Incubus - The Warmth Chords & Tabs

 

The Warmth Chords & Tabs

Incubus Chords & Tabs

Version: 7 Type: Bass Tab 0 ratings
1 star 2 stars 3 stars 4 stars 5 stars
comments

The Warmth Bass Tab

   
Tabbed By : Reuben Sweet
e-mail: abnormally_loud@hotmail.com


Intro pt1/Verse
G|--------------------------------------------------------------------------|
D|-------4h5p4--222-2-------------------------------------------------------|
A|---------------------33-3-----30------------------------------------------|
E|----------------------------------333-000---------------------------------|

Intro pt2/Chorus
G|--------------------------------------------------------------------------|
D|--------------------------------------------------------------------------|
A|-777-77--3333-------------------------------------------------------------|
E|----------------333-33--0000----------------------------------------------|

Interlude pt. 1-This is when Brandon is going like "groooooooow" and he holds the note 
a long time. I don't know the exact rhythm but w/e, its easy to find out.
G|--------------------------------------------------------------------------|
D|--------------------------------------------------------------------------|
A|--------------------------------------------------------------------------|
E|--77-77-77-77-7-77-77-7-77-77---------------------------------------------|
[ Tab from: http://www.guitartabs.cc/tabs/i/incubus/the_warmth_btab_ver_7.html ]
Interlude pt.2-Right after brandon boyd holds that not for a long time and u hear the 
with the cool effect u play this. (again, i don't know the EXACT rhythm.)
G|--------------------------------------------------------------------------|
D|--------------------------------------------------------------------------|
A|--------------------------------------------------------------------------|
E|---77-77-77-77-77-77777777-7-77-10-10-10-101010-77-77-77-88--88--88888888-|

G|--------------------------------------------------------------------------|
D|--------------------------------------------------------------------------|
A|--------------------------------------------------------------------------|
E|---77-7-77-88-101010-101010-101010-101010---------------------------------|
(then back to chorus 1 last time)

G|--------------------------------------------------------------------------|
D|--------------------------------------------------------------------------|
A|--------------------------------------------------------------------------|
E|--------------------------------------------------------------------------|

thats basically it. some parts are a little iffy but i would say this is fairly 
questions, comments, insults? abnormally_loud@hotmail.com

| /  slide up
| \  slide down
| h  hammer-on
| p  pull-off
| ~  vibrato
| +  harmonic
| x  Mute note
===============================================================================
Comments