Incubus - The Warmth Chords & Tabs

 

The Warmth Chords & Tabs

Incubus Chords & Tabs

Version: 6 Type: Bass Tab 0 ratings
1 star 2 stars 3 stars 4 stars 5 stars
comments

The Warmth Bass Tab

Standard Tuning

\ = slide down
p = pull off
s = slap
r = let ring
x = half play the note


Verse

G|---------------------------------------------|
D|---------------------------------------------|
A|-10\7p0--7--7-0h3-3-3------------------------|
E|-----------------------5-3-3--3--3--00--0--0-|
The 10\7p0 bit is a very light pull off, not too heavy


Interlude

G|------------------------------------|
D|------------------------------------|
A|------------------------------------|
E|----x0r--------------x0r------------|

There's a weird slidey bit after this bit but I can't figure it out.

Chorus

G|---------------------------------|
D|---------------------------------|
A|-7-7-7--7------------------------|
E|---------5h88-88\3-3-3--33p00-0-|


Breakdown
[ Tab from: http://www.guitartabs.cc/tabs/i/incubus/the_warmth_btab_ver_6.html ]
G|---------------------------|
D|---------------------------|
A|-2-2---2---22-22---2---2-2-|
E|---------------------------| x2

G|-------------------------------------|
D|-------------------------------------|
A|-s2-s2---s2---s2s2-s2s2---s2---s2-s2-|
E|-------------------------------------|

G|-------------------------------------|
D|-------------------------------------|
A|-s2-s2---s2---s2s2-s5s5---s2---s2-s2-|
E|-------------------------------------|

G|-------------------------------------|
D|-------------------------------------|
A|-s2-s2---s2---s2s2-s3s3---s3---s3-s3-|
E|-------------------------------------|

G|----------------------------------------|
D|----------------------------------------|
A|-s2-s2---s2---s2s2-s5s5---s5-s5-s5-s5s5-|
E|----------------------------------------|


Rest
Verse      x4
Interlude  x1
Verse      x4
Chorus     x4
Rest
Verse      x4
Chorus     x4
Breakdown  x1
Verse      x4
Comments