Incubus - The Warmth Chords & Tabs

 

The Warmth Chords & Tabs

Incubus Chords & Tabs

Version: 2 Type: Bass Tab 0 ratings
1 star 2 stars 3 stars 4 stars 5 stars
comments

The Warmth Bass Tab

The Warmth 
Incubus
Tabbed by Ennemy Offline

The other version to this song waz screwed 

Inrto/verse
|--------------------|----------------|
|-5--2---2------------|----------------|
|------------2/3-3-3-|----------------|
|-----0---0----------|-3-3--3-0-0--0--|

Pre verse
|-----|
|-2---|
|-----|
|---0-|
[ Tab from: http://www.guitartabs.cc/tabs/i/incubus/the_warmth_btab_ver_2.html ]
Chours
|-----------------|
|-2-2-------------|
|-----3-3---------|
|---------3-3-0-0-|

Bridge
|-----|
|-----|
|-2-2-|
|-----|

this song may be messed up a little because of my E-mail
it happened to other side and californication
if it iz messed up put the note that doesn't seem to be in the right place 
were a space iz


E-mail me at Enemyoffline@aol.com if you have any questions, comments, 
or if you want to be my enemy :(
Comments