Incubus - Talk Shows On Mute Chords & Tabs

 

Talk Shows On Mute Chords & Tabs

Incubus Chords & Tabs

Version: 3 Type: Tab 0 ratings
1 star 2 stars 3 stars 4 stars 5 stars
comments

Talk Shows On Mute Tab

Band:Incubus
Song:Talk Shows On Mute
Tabbed By:HeavnlyDisturbd
Tuning:Standard

Here's the solo for Talk Shows On Mute. Once you get the timing down it should be pretty easy.
 
    2:25
e|------------|-------------------------|------------------------|
B|------------|-------------------------|------------------------|
G|------------|-------------------------|------------5-----------|
D|------------|-5-----5--7-5/7--5-----7-|-5/7--5--7-----7--5-5/7-|
A|--5/7---5-7-|----7----------------7---|------------------------|
E|------------|-------------------------|------------------------|
[ Tab from: http://www.guitartabs.cc/tabs/i/incubus/talk_shows_on_mute_tab_ver_3.html ]
e|--------------------|-----------------------|----------------------------|
B|--------------------|-----------------------|----------------------------|
G|-------------0----0-|-0--0---0--0-----0---0-|--0--------------0--0--0----|
D|--(7)--0--5--5--0---|-5--7--10-10/12-10--12-|-12/14-14\12-12-12\10-12\7-7|
A|--------------------|-----------------------|----------------------------|
E|--------------------|-----------------------|----------------------------|

e|--------------|-------|----------------------|---------------------|
B|--------------|-------|------10--------10----|---------------------|
G|-----------5--|-5-----|---------9------------|---------------------|
D|--7\5-5--7----|---7---|---10--------10----10-|-10-10-10-10-9-9-7-7-|
A|--------------|-----7-|-8--------------------|---------------------|
E|--------------|-------|----------------------|---------------------|

e|------------------|---------------|-----------------|-----------------|
B|------------------|---------------|-----------------|-----------------|
G|--9---9-7-----7-7-|-9---9\7---7---|-7---5-----5---5-|-7---5-----5---5-|
D|----7-------7-----|---7-----7---7-|---7-----7---7---|---7---7-7---7---|
A|------------------|---------------|-----------------|-----------------|
E|------------------|---------------|-----------------|-----------------|

And there you go. I'm pretty sure it's right. Good Luck and Rock On.
Comments