Incubus - Talk Shows On Mute Chords & Tabs

 

Talk Shows On Mute Chords & Tabs

Incubus Chords & Tabs

Version: 2 Type: Tab 3 ratings
1 star 2 stars 3 stars 4 stars 5 stars
comments

Talk Shows On Mute Tab

   
Artist: Incubus
Song: Talk Shows On Mute
Album: A Crow Left Of The Murder

112 bpm
Standard Tuning


Verse

e|-----------------------------------------------------------------|
B|-----------------------------------------------------------------|
G|-----------0---------------0-----2-2-2-2-2-0-----2-2-2-2-2-------|
D|-------------2-0-------------2-0-2-2-0-2-2---2-0-2-2-0-2-2-9-9-9-|
A|-3-3-0-3-3-------3-3-0-3-3-------0-0-0-0-0-------0-0-0-0-0-7-7-7-|
E|-----------------------------------------------------------7-7-7-|
                  |               |               |               


Chorus
(for timing please listen to the CD)

     F                     G        Em    

e|---0---------------------3---------0----
B|---10--------------------3---------0----
G|---9---------------------4---------0----
D|---10--------------------5---------2----
A|---8---------------------5---------2----
E|---x---------------------3---------0----
         "Come one come all   into 1984"

     F                     G     Bb    G
[ Tab from: http://www.guitartabs.cc/tabs/i/incubus/talk_shows_on_mute_tab_ver_2.html ]
e|---0---------------------3-----6-----3----|
B|---10--------------------3-----6-----3----|
G|---9---------------------4-----7-----4----|
D|---10--------------------5-----8-----5----|
A|---8---------------------5-----8-----5----|
E|---x---------------------3-----6-----3----|
        "Yeah three-two-one  lights camera ..." 


Solo

Sounds great. But I'm not into solos. 
Feel free to improvise (something around C).



after the last Chorus

    Csus2                         Asus2           Fmaj7

e|---0-----------------------------0---------------0---------------|
B|---0-----------------------------0---------------1---------------|
G|---0-----------------------------2---------------2---------------|
D|---2-----------------------------2---------------3---------------|
A|---3-----------------------------0---------------3---------------|
E|---x-----------------------------x---------------x---------------|
                  |               |               |               



Any comments, questions (... or paeans of praise)? Just e-mail me: cl7@gmx.net .

Thanks for reading. Claudia

Comments