Incubus - Talk Shows On Mute Chords & Tabs

 

Talk Shows On Mute Chords & Tabs

Incubus Chords & Tabs

Version: 1 Type: Tab 2 ratings
1 star 2 stars 3 stars 4 stars 5 stars
comments

Talk Shows On Mute Tab

   
Talk Shows on Mute
Incubus

=+=+=+=+=+=+=+=+=+=+=+=+=+=+=+=+=+=+=+=+=+=+=+=+=+=+=+=+=+=+=+=
tabbed by: deneb delos santos

  _._
 /_^_\   
!/   \! questions/comments: looney_neb@yahoo.com
d=0-0=b	  /  
|\ - /|  . 
| \_/ | 

THIS SONG GOES OUT TO MY YIN aka prettypott ;p YOU KNOW WHO YOU ARE 
=+=+=+=+=+=+=+=+=+=+=+=+=+=+=+=+=+=+=+=+=+=+=+=+=+=+=+=+=+=+=+=
Standard Tuning: (EADGBE)

intro:

||------------------        -----------------------------------
||------------------        -----------------------------------
||-------------0---- (2x)   --------------0---------------4-4--
||---2-2---2-2--2---        ----2-2---2-2--2---2-2---2-2--5-5--
||---3-3-0-3-3---3--        ----0-0---0-0---0--0-0---0-0--5-5--
||------------------        --------0--------------0-----------

verse:

	pm
||-------------    ------        
||-------------    ------        
||-------------    -0----  2x    
||---2-2---2-2-    --2---        
||---3-3-0-3-3-    ---3--        
||-------------    ------        

	pm			       pm
||-------------    ------         -----------    ------
||-------------    ------         -----------    ------
||-------------    -0----  2x     -----------    -4-4--
||---2-2---2-2-    --2---         -2-2---2-2-    -5-5--
||---0-0---0-0-    ---3--         -0-0---0-0-    -5-5--
||-------0-----    ------         -----0-----    ------

chorus:

||-------5-5------------3-------5-------------
||-------5-5------------3-------5-------------
||-------5-5--------4-4-4-------5-------4---4-
||-----3---3--------5-5-5-------3-------5-8-5-
||---0--------------5-5-5---------------5-8-5-
||--------------0-3---3-3---0-1-----0-3-3-6-3-

repeat intro

verse2:(down strum)

||-------0--
||---0---0--
||---0---2--  2x
||---2---2--
||---3---0--
||----------
[ Tab from: http://www.guitartabs.cc/tabs/i/incubus/talk_shows_on_mute_tab.html ]
	pm
||-------------    ------        
||-------------    ------        
||-------------    -0----  2x    
||---2-2---2-2-    --2---        
||---3-3-0-3-3-    ---3--        
||-------------    ------        

	pm			       pm
||-------------    ------         -----------    ------
||-------------    ------         -----------    ------
||-------------    -0----  2x     -----------    -4-4--
||---2-2---2-2-    --2---         -2-2---2-2-    -5-5--
||---0-0---0-0-    ---3--         -0-0---0-0-    -5-5--
||-------0-----    ------         -----0-----    ------

repeat chorus

bridge:

||-----------------------------------------------------
||-----------------------------------------------------
||---------------------------------5---------5---------
||-------------5-5-7-7-5---7-7-5-7---7-5-7~----5-5-----
||---5/7~--5h7--7--------7-------------------------5-5-
||-----------------------------------------------------

||----------------------------------------------------------
||----------------------------------------------------------
||----------------------------------------------------------
||---5/7/10/12\10/12/14\12-12\10\7-7-5-7/10~--10------------
||---5/7/10/12\10/12/14\12-12\10\7-7-------------12-------12
||--------------------------------------------------12-13---

||---------------------------------------------------------------------------
||---10---10-----------------------------------------------------------------
||------9---------------------------9--9-7--7-7--9---9-7-7---5---5---5h7---5-
||-----------10-10-10-10-10-9-9-7-7----------------7-------7--77---7-----7---
||---------------------------------------------------------------------------
||---------------------------------------------------------------------------

||---------------------------------
||---------------------------------
||---5h7-5-5-5-2h4-4-2-4-4-444444--
||---------------------------------
||---------------------------------
||---------------------------------


repeat chorus then verse2 strumming thingy

o==|;;;::. KEEPIN IT GANGSTA! .::;;;|==o
Comments