Incubus - Talk Show On Mute Chords & Tabs

 

Talk Show On Mute Chords & Tabs

Incubus Chords & Tabs

Version: 4 Type: Tab 0 ratings
1 star 2 stars 3 stars 4 stars 5 stars
comments

Talk Show On Mute Tab

Incubus - Talk Show on Mute

By: Sweet Lou

Yeah I know shat is right. I saw it on the dvd that came with the c.d.


Intro/Verse

------------------------------------------------------------------
------------------------------------------------------------------
------------0--------------0--------------0-----------------9-----
---2-2-0-2----2---2-2-0-2----2---2-2-0-2----2---2-2-0-2-----9-----
---3-3-3-3--------3-3-3-3--------0-0-0-0------- 0-0-0-0-----7-----
------------------------------------------------------------------


Chorus

---8---------3---------8---------3---------------------------------
---10--------3---------10--------3---------------------------------
---9---------4---------9---------4---------3----5------------------
---10--------5---------10--------5---------3----5------------------
---8---------5---------8---------5---------1----3------------------
---8---------3---------8---------3---------------------------------

Verse


---0---0----
---0---0----
---0---2----
---2---2----
---3---0----
------------

Solo


---------------------------------------------------
---------------------------------------------------
------------------------------------- 5-------0----
------------5---5-7-7-5---7-7-5-7-5-7- 7-5---5-----
---5/7--5h7---7--------7---------------------------
---------------------------------------------------

[ Tab from: http://www.guitartabs.cc/tabs/i/incubus/talk_show_on_mute_tab_ver_4.html ]
------------------------------------------------------------
------------------------------------------------------------
-0-----0--0--0------0--0--0----------0--0------0-----0------
-7s10--7-10-10s12--10-12-12s14s-12--12-12s10--10s-7--7------
------------------------------------------------------------
------------------------------------------------------------


 
----------------------------------------------------------------------------
-----------------------------10-----------10--------------------------------
-0-----0-0-5------5-------------9-----------------------------------9---9-7-
-7s=5--5-7----------7-----10-----------10----10-10-10-10-10-9-9-7-7---7-----
----------------------7-8---------------------------------------------------
----------------------------------------------------------------------------


--------------------------------------------------------------
--------------------------------------------------------------
-------7-7-9---9s7---7-7-7p5---5----5---5-7---5-5---5---5---7-
-----7-------7-----7---------7----7---7-----7-----7---7---9---
--------------------------------------------------------------
--------------------------------------------------------------


 
-----------------------------
-----------------------------
---7---7-7-7-7-7-7-7\--------
-9---9-----------------------
-----------------------------
-----------------------------


Tabbed By the One and Only Louis Estrada aka Sweetness
Comments