Incubus - Talk Show On Mute Chords & Tabs

 

Talk Show On Mute Chords & Tabs

Incubus Chords & Tabs

Version: 3 Type: Tab 0 ratings
1 star 2 stars 3 stars 4 stars 5 stars
comments

Talk Show On Mute Tab

   
Incubus- Talk Shows On Mute
tabbed by: Brian Torres
Standard tuning-e,a,d,g,b,e

Intro and 1st verse
-----------------------------------------------------------------------------|
-----------------------------------------------------------------------------|
------------0---------------0---------------0--------------------------------|
--2-2-0-2-2---2-0-2-2-0-2-2---2-0-2-2-0-2-2---2-0-2-2-0-2-0-9-9-0------------|
--3-3-0-3-3-----0-3-3-0-3-3-----0-0-0-0-0-0-----0-0-0-0-0-0-7-7-0------------|
-----------------------------------------------------------------------------|

chorus (strumming obviously not shown)
on the cd he doesnt strum every string but in the live acoustic performance he did
----0-------------3--------0---0-----------------3------6--3-3---------------|
----10------------3--------0---10----------------3------6--3-3---------------|
----9-------------4--------0---9-----------------4------7--4-4---------------|
----10------------5--------2---10----------------5------8--5-5---------------|
--8-8-------------5--------2---8-----------------5------8--5-5---------------|
------------------3--------0---------------------3------6--3-3---------------|
       come...     all...   ...84     yeah 3  2  1...     camera...

2nd verse
----------------------------------------------------------------------------|
----------------------------------------------------------------------------|
------------0---------------0---------------0-------------------------------|
--2-2-0-2-2---2-0-2-2-0-2-2---2-0-2-2-0-2-2---2-0-2-2-0-2-0-9-9-0-----------|
--3-3-0-3-3-----0-3-3-0-3-3-----0-0-0-0-0-0-----0-0-0-0-0-0-7-7-0-----------|
----------------------------------------------------------------------------|

hit high e string only on acoustic version
-----(0)---------(0)----------(0)------------(0)----------------------------|
-----0-----------0------------0--------------0------------------------------|
----0-----------2------------0--------------2-------------------------------|
---2-----------2------------2--------------2------------9-9-0---------------|
--3-----------0------------3--------------0-------------7-7-0---------------|
----------------------------------------------------------------------------|

--------------------------------------------------------------------------|
--------------------------------------------------------------------------|
------------0---------------0---------------0-----------------------------|
--2-2-0-2-2---2-0-2-2-0-2-2---2-0-2-2-0-2-2---2-0-2-2-0-2-0-9-9-0---------|
--3-3-0-3-3-----0-3-3-0-3-3-----0-0-0-0-0-0-----0-0-0-0-0-0-7-7-0---------|
--------------------------------------------------------------------------|
[ Tab from: http://www.guitartabs.cc/tabs/i/incubus/talk_show_on_mute_tab_ver_3.html ]
chorus (strumming obviously not shown)
----0-------------3--------0-------0-------------3------6--3-3---------------|
----10------------3--------0-------10------------3------6--3-3---------------|
----9-------------4--------0-------9-------------4------7--4-4---------------|
----10------------5--------2-------10------------5------8--5-5---------------|
--8-8-------------5--------2-------8-------------5------8--5-5---------------|
------------------3--------0---------------------3------6--3-3---------------|
       come...     all...   ...84          yeah 3  2  1...     camera...

solo
-----------------------------------------------------------------------------|
-----------------------------------------------------------------------------|
---------------------------------------5-----------------0-----0-------------|
-------------5---5-7-5h7-5---7-5h7-5-7---7-5-5h7-------5---5-0---------------|
--5/7----5h7---7-----------7-------------------------------------------------|
-----------------------------------------------------------------------------|

-----------------------------------------------------------------------------|
-----------------------------------------------------------------------------|
--0---0--0-----0--0--0------0--0-----0----0-------5-----5--------------------|
--5/7-10-10/12-10-12-12/14--12-12\10-10\7-7-7-5-7---------7------------------|
------------------------------------------------------------7----------------|
-----------------------------------------------------------------------------|

-----------------------------------------------------------------------------|
---------10-----10-----------------------------------------------------------|
------------9------9---------------------9---9-7----7-7---9---9p7---7-7-7-5--|
------10-------------10-10-10-10-9-9-7-7---7------7---------7-----7----5-----|
---8---------8---------------------------------------------------------------|
-----------------------------------------------------------------------------|


-----------------------------------------------------------------------------|
-----------------------------0-0---------0---0-0-0-0-0-0-0-------------------|
----5---5-7---5-----5---5----4-4----4----4---4-4-4-4-4-4-4-------------------|
--7---7-----7---7-7---7---7--5-5--7---7--5---5-5-5-5-5-5-5-------------------|
-----------------------------------------------------------------------------|
-----------------------------------------------------------------------------|

chorus (strumming obviously not shown)
----0-------------3--------0-------0-------------3------6--3-3---------------|
----10------------3--------0-------10------------3------6--3-3---------------|
----9-------------4--------0-------9-------------4------7--4-4---------------|
----10------------5--------2-------10------------5------8--5-5---------------|
--8-8-------------5--------2-------8-------------5------8--5-5---------------|
------------------3--------0---------------------3------6--3-3---------------|
       come...     all...   ...84          yeah 3  2  1...     camera...

outro verse
-----(0)--------(0)---------(1)------(0)---------(0)--------(1)----------5---|
-----0----------0-----------1--------0-----------0----------1-----------5----|
----0----------2-----------2--------0-----------2----------2-----------5-----|
---2----------2-----------3--------2-----------2----------3-----------7------|
--3----------0-----------3--------3-----------0----------3-----------7-------|
-----------------------(1)-----------------------------(1)----------5--------|

thats it
Comments