Incubus - Take Me To Your Leader Chords & Tabs

 

Take Me To Your Leader Chords & Tabs

Incubus Chords & Tabs

Version: 2 Type: Tab 0 ratings
1 star 2 stars 3 stars 4 stars 5 stars
comments

Take Me To Your Leader Tab

INCUBUS

song:Take Me To Your Leader[fungus amongus]
Drop D Tuning
tabber:enjoyincubus69
another gr8 tune from the early years
Intro
~~~~~
E------
B------
G------ Repeat 13 times
D------
A------
D--0-0-
PM - -

Intro (Guitar 2)/Main Riff

E-------------
B-------------
G------4----4- Play after the 5th time 
D--0-3----3--- of Guitar 1's Intro and repeat
A------------- 16 times
D-------------
PM - - -  - -

Verse 1
E-----------------------
B-----------------------
G----------------------- Play with a low pitch tone &
D--5--0--1-0--5--0--5-0- play 4 times then go to Verse 2 
A--5--0--1-0--5--0--5-0-
D--5--0--1-0--5--0--5-0-


Verse 2
E-----------------
B-----------------
G----------------- Play 2 times and go to Verse 3
D--12--11--10--11- On 2nd time, play Fill 1 then go
A--12--11--10--11- to Verse 3
D--12--11--10--11-
[ Tab from: http://www.guitartabs.cc/tabs/i/incubus/take_me_to_your_leader_tab_ver_2.html ]
Verse 3[best bit]
E-------------------------------------------------------
B-------------------------------------------------------
G-------------------------------------------------------
D--10h9-x-9--10h9-x-9-10h9----10h9-x-9--10h9-x-9--12-12-
A--10h9-x-9--10h9-x-9-10h9----10h9-x-9--10h9-x-9--12-12-
D--10h9-x-9--10h9-x-9-10h9----10h9-x-9--10h9-x-9--12-12-
	Play 4 times and go to Main Riff
	and repeat everything
Fill 1
E--------------------------------------
B--------------------------------------
G-------------------------------------- Play extremely
D--12-12-12-12-10-10-10-10-11-11-11-11- fast and go to
A--12-12-12-12-10-10-10-10-11-11-11-11- Bridge
D--12-12-12-12-10-10-10-10-11-11-11-11-

Bridge
E-------------
B-------------
G------------- Go to Verse 4 after this
D--10--11--12- On 4th time play 8 times
A--10--11--12- then go to Verse 3 and end song
D--10--11--12-

Verse 4
E--2--------2---5--7-
B--3--------3---5--7-
G-------------------- Play this and repeat Bridge 
D-------------------- and come back here 3 times
A-------------------- 
D--------------------
 
enjoy incubus!!!!!!!!



Comments