Incubus - Summer Romance Chords & Tabs

 

Summer Romance Chords & Tabs

Incubus Chords & Tabs

Version: 8 Type: Tab 0 ratings
1 star 2 stars 3 stars 4 stars 5 stars
comments

Summer Romance Tab

this song is on the "When Incubus Attacks Volume 2" DVD and is played at a live acoustic concert.

intro

e|-x---x---7-h-10---x---7---x---5-h-7---x---x---2---2-h-5------------------|
B|-x---x---7-h-10---x---7---x---5-h-7---x---x---2---2-h-5------------------|
G|-------------------------------------------------------------------------|
D|-------------------------------------------------------------------------|
A|-------------------------------------------------------------------------|
E|-------------------------------------------------------------------------|

e|-x---x---7-h-10---x---7---x---5-h-7---x---x---3---3-h-5------------------|
B|-x---x---7-h-10---x---7---x---5-h-7---x---x---3---3-h-5------------------|
G|-------------------------------------------------------------------------|
D|-------------------------------------------------------------------------|
A|-------------------------------------------------------------------------|
E|-------------------------------------------------------------------------|

e|-x---x---7-h-10---x---5-h-7---x---3-h-5---x---0-h-2----------------------|
B|-x---x---7-h-10---x---5-h-7---x---3-h-5---x---0-h-2----------------------|
G|-------------------------------------------------------------------------|
D|-------------------------------------------------------------------------|
A|-------------------------------------------------------------------------|
E|-------------------------------------------------------------------------|

e|-x---x---7-h-10---x---7---x---5-h-7---x---x---2---2-h-5------------------|
B|-x---x---7-h-10---x---7---x---5-h-7---x---x---2---2-h-5------------------|
G|-------------------------------------------------------------------------|
D|-------------------------------------------------------------------------|
A|-------------------------------------------------------------------------|
E|-------------------------------------------------------------------------|

e|-x---x---7-h-10---x---7---x---5-h-7---x---x---3---3-h-5------------------|
B|-x---x---7-h-10---x---7---x---5-h-7---x---x---3---3-h-5------------------|
G|-------------------------------------------------------------------------|
D|-------------------------------------------------------------------------|
A|-------------------------------------------------------------------------|
E|-------------------------------------------------------------------------|
[ Tab from: http://www.guitartabs.cc/tabs/i/incubus/summer_romance_tab_ver_8.html ]
e|-x---x---7-h-10---x---7---x---5-h-7---x---x---2---2-h-5------------------|
B|-x---x---7-h-10---x---7---x---5-h-7---x---x---2---2-h-5------------------|
G|-------------------------------------------------------------------------|
D|-------------------------------------------------------------------------|
A|-------------------------------------------------------------------------|
E|-------------------------------------------------------------------------|
e|-x---x---7-h-10---x---7---x---5-/-7---7---7---7---7---7------------------|
B|-x---x---7-h-10---x---7---x---5-/-7---7---7---7---7---7------------------|
G|-------------------------------------------------------------------------|
D|-------------------------------------------------------------------------|
A|-------------------------------------------------------------------------|
E|-------------------------------------------------------------------------|

verse

e|-7-h10--7----------------------------------------------7---------|
B|-----------9-------------------------------------------7---------|
G|--------------9p-7--------------7-----7/9--7--7--7-----7---------|
D|--------------------9p-7--6-h9-----9-------------------7---------|
A|-------------------------------------------------------9---------|
E|-------------------------------------------------------7---------|




e|---10--12--12/14--12--10/12--12------------------------7---------------|
B|---x---x---x------x---x------x---12--------------------7---------------|
G|---7---9---9-/11--9---7-/9---9---x---------------------7---------------|
D|---------------------------------9---------------------7---------------|
A|-------------------------------------------------------9---------------|
E|-------------------------------------------------------7---------------|

chorus

e|---7-7-7-7-7-7-7-7--5-5-5-5-5-5-5-5-5-5-5-5-----------------------------|
B|---8-8-8-8-8-8-8-8--7-7-7-7-7-7-7-7-7-7-7-7-----------------------------|
G|---7-7-7-7-7-7-7-7--6-6-6-6-6-6-6-6-6-6-6-6-----------------------------|
D|---9-9-9-9-9-9-9-9--7-7-7-7-7-7-7-7-7-7-7-7-----------------------------|
A|-7-7-7-7-7-7-7-7-7--5-5-5-5-5-5-5-5-5-5-5-5-----------------------------|
E|------------------------------------------------------------------------|

e|-6-6-6-6-6-6-6-6-6-6-6--7-7-7-7-7-7-7-7-7-7-----------------------------|
B|-7-7-7-7-7-7-7-7-7-7-7--7-7-7-7-7-7-7-7-7-7-----------------------------|
G|-9-9-9-9-9-9-9-9-9-9-9--7-7-7-7-7-7-7-7-7-7-----------------------------|
D|-8-8-8-8-8-8-8-8-8-8-8--7-7-7-7-7-7-7-7-7-7-----------------------------|
A|------------------------------------------------------------------------|
E|------------------------------------------------------------------------|

then play Chorus part 2: same as intro

End of chorus/outro
Then play this: it's the end of the chorus as well as the end of the song

e|-5--5--x-5--5--x-5-5------------------------------------7-|
B|-5--5--x-5--5--x-5-5----------------7-7--7--7--7-7-7----7-|
G|-5--5--x-5--5--x-5-5-4--------------7-7--7--7--7-7-7----7-|
D|---------------------5--2-----------7-7--7--7--7-7-7----7-|
A|---------------------5--2-----------9-9--9--9--9-9-9----9-|
E|---------------------3--0--3/10--9--7-7--7--7--7-7-7------|
Comments