Incubus - Summer Romance Chords & Tabs

 

Summer Romance Chords & Tabs

Incubus Chords & Tabs

Version: 5 Type: Tab 0 ratings
1 star 2 stars 3 stars 4 stars 5 stars
comments

Summer Romance Tab

   
Artist: Incubus
Title: Summer Romance (The Anti-Gravity Love Song)
Album: S.C.I.E.N.C.E.

Standard Tuning (EADGBe)


Intro 

  ( Palm Mute )

e|-5-5-5---5-5-|-7h10-x-7-x-5-7-x-------------7h10-x-7-x-5-7-x--------------|
B|-------------|-----------------7-x-7h10-x-x------------------8-x-8h10-x-x-|
G|-------------|------------------------------------------------------------|  x3
D|-------------|------------------------------------------------------------|
A|-------------|------------------------------------------------------------|
E|-------------|------------------------------------------------------------|

e|-7h9-x-7-x-5-7-x-------------7h10-x-5h7-x--------------|
B|-----------------7-x-7h10-x-x-------------8h10-x-5h7-x-|
G|-------------------------------------------------------|
D|-------------------------------------------------------|
A|-------------------------------------------------------|
E|-------------------------------------------------------|

e|-7h10-x-7-x-5-7-x-------------7h10-x-7-x-5-7-x----------------|
B|-----------------7-x-7h10-x-x------------------8-x-8h10-x-x---|
G|--------------------------------------------------------------|
D|--------------------------------------------------------------|
A|--------------------------------------------------------------|
E|--------------------------------------------------------------|
                                                                     X2
e|-7h10-x-7-x-5-7-x----------------7h10-x-7-x-5h7-7-7-7-7-7-7-7-|
B|-----------------7-x-7h10-x-x---------------------------------|
G|--------------------------------------------------------------|
D|--------------------------------------------------------------|
A|--------------------------------------------------------------|
E|--------------------------------------------------------------|


Bridge Solo

e|-7h10p7-----------------------------|
B|--------9---------------------------|
G|----------9p7---------7---7h9---7-7-|
D|--------------9p7-6-9---9-----------|
A|------------------------------------|
E|------------------------------------|


Verse
     
                                      Let Ring
e|------7-------10-12-14-12-10/12--10-7----------7--7-7-7-
B|-----7-----------------------------------------7--7-7-7-
G|----7---------7--9--11-9--7-/9---7--4-------------------
D|---7----------------------------------------------------
A|--9-----------------------------------------------------
E|-7------------------------------------------------------

                                      Let Ring
  ------7-------10-12-14-12-10/12--10-7----------x-x-7--x-x-7-
  -----7-----------------------------------------x-x-7--x-x-7-
  ----7---------7--9--11-9--7-/9---7--4-----------------------
  ---7--------------------------------------------------------
  --9---------------------------------------------------------
  -7----------------------------------------------------------

                                      Let Ring
  ------7-------10-12-14-12-10/12--10-7----------7--7-7-7-
  -----7-----------------------------------------7--7-7-7-
  ----7---------7--9--11-9--7-/9---7--4-------------------
  ---7----------------------------------------------------
  --9-----------------------------------------------------
  -7------------------------------------------------------

                                
  ------7-------12p10--10--777777--5--5/7--77-777--7-7--777-|
  -----7-----------------------------------7-7-777-7-7-777-|
  ----7------------------------------------------------------|
  ---7-------------------------------------------------------|
  --9--------------------------------------------------------|
  -7---------------------------------------------------------|




Chorus

e|-7-x-x-x-7--7-7-x-x--5-x-x-x-5--5-5-x-x----------------------7-x-x-x-7-10-x-x-x-10-
B|-8-x-x-x-8--8-8-x-x--7-x-x-x-7--7-7-x-x--8-x-x-x-8--8-8-x-x--7-x-x-x-7-12-x-x-x-12-
G|-7-x-x-x-7--7-7-x-x--6-x-x-x-6--6-6-x-x--6-x-x-x-6--6-6-x-x--7-x-x-x-7-11-x-x-x-11-
D|-9-x-x-x-9--9-9-x-x--7-x-x-x-7--7-7-x-x--8-x-x-x-8--8-8-x-x--7-x-x-x-7-12-x-x-x-12-
A|-7-x-x-x-7--7-7-x-x--5-x-x-x-5--5-5-x-x--7-x-x-x-7--7-7-x-x--9-x-x-x-9-10-x-x-x-10-
E|-----------------------------------------6-x-x-x-6--6-6-x-x--7-x-x-x-7-------------

e|7-x-x-x-7--7-7-x-x--5-x-x-x-5--5-5-x-x----------------------7-7-7-10-10-10-10-10-10-10-10-10-10|
B|8-x-x-x-8--8-8-x-x--7-x-x-x-7--7-7-x-x--8-x-x-x-8--8-8-x-x--7-7-7-12-12-12-12-12-12-12-12-12-12|
G|7-x-x-x-7--7-7-x-x--6-x-x-x-6--6-6-x-x--6-x-x-x-6--6-6-x-x--7-7-7-11-11-11-11-11-11-11-11-11-11|
D|9-x-x-x-9--9-9-x-x--7-x-x-x-7--7-7-x-x--8-x-x-x-8--8-8-x-x--7-7-7-12-12-12-12-12-12-12-12-12-12|
A|7-x-x-x-7--7-7-x-x--5-x-x-x-5--5-5-x-x--7-x-x-x-7--7-7-x-x--9-9-9-10-10-10-10-10-10-10-10-10-10|
E|----------------------------------------6-x-x-x-6--6-6-x-x--7-7-7------------------------------|


Intro Riff

e|-7h10-x-7-x-5-7-x-------------7h10-x-7-x-5-7-x----------------|
B|-----------------7-x-7h10-x-x------------------8-x-8h10-x-x---|
G|--------------------------------------------------------------|
D|--------------------------------------------------------------|
A|--------------------------------------------------------------|
E|--------------------------------------------------------------|
                                                                     X2
e|-7h10-x-7-x-5-7-x----------------7h10-x-7-x-5h7-7-7-7-7-7-7-7-|
B|-----------------7-x-7h10-x-x---------------------------------|
G|--------------------------------------------------------------|
D|--------------------------------------------------------------|
A|--------------------------------------------------------------|
E|--------------------------------------------------------------|


Interlude

e|----------------------------------------------------|
B|----------------------------------------------------|
G|-----------------------------7---6---4-4--4--4-4--4-|
D|-5---x-x-5---5--5---4--2--4--7---6---4-4--4--4-4--4-|
A|-5---x-x-5---5--5---4--2--4--5---4---2-2--2--2-2--2-|
E|-3---x-x-3---3--3---2--0--2-------------------------|


Verse
     
                                      Let Ring
e|------7-------10-12-14-12-10/12--10-7----------7--7-7-7-
B|-----7-----------------------------------------7--7-7-7-
G|----7---------7--9--11-9--7-/9---7--4-------------------
D|---7----------------------------------------------------
A|--9-----------------------------------------------------
E|-7------------------------------------------------------

                                      Let Ring
  ------7-------10-12-14-12-10/12--10-7----------x-x-7--x-x-7-
  -----7-----------------------------------------x-x-7--x-x-7-
  ----7---------7--9--11-9--7-/9---7--4-----------------------
  ---7--------------------------------------------------------
  --9---------------------------------------------------------
  -7----------------------------------------------------------
[ Tab from: http://www.guitartabs.cc/tabs/i/incubus/summer_romance_tab_ver_5.html ]
                                      Let Ring
  ------7-------10-12-14-12-10/12--10-7----------7--7-7-7-
  -----7-----------------------------------------7--7-7-7-
  ----7---------7--9--11-9--7-/9---7--4-------------------
  ---7----------------------------------------------------
  --9-----------------------------------------------------
  -7------------------------------------------------------

                                     Let Ring
  ------7-------10-12-14-12-10/12--10-7----------24----------------------------------------------|
  -----7------------------------------------------------24---------------------------------------|
  ----7---------7--9--11-9--7-/9---7--4-------------19---------23--------------------------------|
  ---7-----------------------------------------------------19---------24-----21-----19-----16----|
  --9-------------------------------------------------------------19-----------------------------|
  -7---------------------------------------------------------------------22-----19-----17-----14\|










Chorus

e|7-x-x-x-7--7-7-x-x--5-x-x-x-5--5-5-x-x----------------------7-x-x-x-7-10-x-x-x-10-
B|8-x-x-x-8--8-8-x-x--7-x-x-x-7--7-7-x-x--8-x-x-x-8--8-8-x-x--7-x-x-x-7-12-x-x-x-12-
G|7-x-x-x-7--7-7-x-x--6-x-x-x-6--6-6-x-x--6-x-x-x-6--6-6-x-x--7-x-x-x-7-11-x-x-x-11-
D|9-x-x-x-9--9-9-x-x--7-x-x-x-7--7-7-x-x--8-x-x-x-8--8-8-x-x--7-x-x-x-7-12-x-x-x-12-
A|7-x-x-x-7--7-7-x-x--5-x-x-x-5--5-5-x-x--7-x-x-x-7--7-7-x-x--9-x-x-x-9-10-x-x-x-10-
E|----------------------------------------6-x-x-x-6--6-6-x-x--7-x-x-x-7-------------

e|7-x-x-x-7--7-7-x-x--5-x-x-x-5--5-5-x-x----------------------7-7-7-10-10-10-10-10-10-10-10-10-10|
B|8-x-x-x-8--8-8-x-x--7-x-x-x-7--7-7-x-x--8-x-x-x-8--8-8-x-x--7-7-7-12-12-12-12-12-12-12-12-12-12|
G|7-x-x-x-7--7-7-x-x--6-x-x-x-6--6-6-x-x--6-x-x-x-6--6-6-x-x--7-7-7-11-11-11-11-11-11-11-11-11-11|
D|9-x-x-x-9--9-9-x-x--7-x-x-x-7--7-7-x-x--8-x-x-x-8--8-8-x-x--7-7-7-12-12-12-12-12-12-12-12-12-12|
A|7-x-x-x-7--7-7-x-x--5-x-x-x-5--5-5-x-x--7-x-x-x-7--7-7-x-x--9-9-9-10-10-10-10-10-10-10-10-10-10|
E|----------------------------------------6-x-x-x-6--6-6-x-x--7-7-7------------------------------|



Intro Riff

e|-7h10-x-7-x-5-7-x-------------7h10-x-7-x-5-7-x----------------|
B|-----------------7-x-7h10-x-x------------------8-x-8h10-x-x---|
G|--------------------------------------------------------------|
D|--------------------------------------------------------------|
A|--------------------------------------------------------------|
E|--------------------------------------------------------------|
                                                                     X2
e|-7h10-x-7-x-5-7-x----------------7h10-x-7-x-5h7-7-7-7-7-7-7-7-|
B|-----------------7-x-7h10-x-x---------------------------------|
G|--------------------------------------------------------------|
D|--------------------------------------------------------------|
A|--------------------------------------------------------------|
E|--------------------------------------------------------------|


Interlude

e|----------------------------------------------------|
B|----------------------------------------------------|
G|-----------------------------7---6---4-4--4--4-4--4-|
D|-5---x-x-5---5--5---4--2--4--7---6---4-4--4--4-4--4-|
A|-5---x-x-5---5--5---4--2--4--5---4---2-2--2--2-2--2-|
E|-3---x-x-3---3--3---2--0--2-------------------------|

Interlude Part 2                    Drum Sounds the last beat
                                                .
e|--------------------------------------------------|
B|--------------------------------------------------|
G|-4-4--4--4-4--4---4-4--4--4-4--4---4---4---4------|
D|-4-4--4--4-4--4---4-4--4--4-4--4---4---4---4------|
A|-2-2--2--2-2--2---2-2--2--2-2--2---2---2---2------|
E|--------------------------------------------------|


Solo

e|-5h7-7-7--5--7-5-5-5--5h7-7-7--7-7-5-5--7-7-5-5--7-7-5-5--7-7-5-5--5-7-5--
B|-5h7-7-7-----------5--5h7-7-7--7-7-5-5--7-7-5-5--7-7-5-5--7-7-5-5--5-7-5--
G|--------------------------------------------------------------------------
D|--------------------------------------------------------------------------
A|--------------------------------------------------------------------------
E|--------------------------------------------------------------------------

e|--5h7-7-7--7-7-5-5------------5h7-7-7--5/7--7--5--5--7--5h7-7-7-----------
B|--5h7-7-7--7-7-5-5------------5h7-7-7--5/7--7--5--5--7--5h7-7-7--5-5--3-3-
G|-------------------5/7-5-------------------------------------------------
D|----------------------7---7-----------------------------------------------
A|--------------------------------------------------------------------------
E|--------------------------------------------------------------------------

e|--5h7-7-7--5/7--7-7-7-7-7-7-7--7/10-10-10--10/1212-12-
B|--5h7-7-7--5/7--7-7-7-7-7-7-7--7/10-10-10--10/1212-12-
G|-------------------------------------------------------
D|-------------------------------------------------------
A|-------------------------------------------------------
E|-------------------------------------------------------



e|7-x-x-x-7--7-7-x-x--5-x-x-x-5--5-5-x-x----------------------7-x-x-x-7-10-x-x-x-10-
B|8-x-x-x-8--8-8-x-x--7-x-x-x-7--7-7-x-x--8-x-x-x-8--8-8-x-x--7-x-x-x-7-12-x-x-x-12-
G|7-x-x-x-7--7-7-x-x--6-x-x-x-6--6-6-x-x--6-x-x-x-6--6-6-x-x--7-x-x-x-7-11-x-x-x-11-
D|9-x-x-x-9--9-9-x-x--7-x-x-x-7--7-7-x-x--8-x-x-x-8--8-8-x-x--7-x-x-x-7-12-x-x-x-12-
A|7-x-x-x-7--7-7-x-x--5-x-x-x-5--5-5-x-x--7-x-x-x-7--7-7-x-x--9-x-x-x-9-10-x-x-x-10-
E|----------------------------------------6-x-x-x-6--6-6-x-x--7-x-x-x-7-------------


  -7-x-x-x-7--7-7-x-x--5-x-x-x-5--5-5-x-x-------------------------------------|
  -8-x-x-x-8--8-8-x-x--7-x-x-x-7--7-7-x-x--8-x-x-x-8--8-8-x-x-----------------|
  -7-x-x-x-7--7-7-x-x--6-x-x-x-6--6-6-x-x--6-x-x-x-6--6-6-x-x--4-4--4--4-4--4-|
  -9-x-x-x-9--9-9-x-x--7-x-x-x-7--7-7-x-x--8-x-x-x-8--8-8-x-x--4-4--4--4-4--4-|
  -7-x-x-x-7--7-7-x-x--5-x-x-x-5--5-5-x-x--7-x-x-x-7--7-7-x-x--2-2--2--2-2--2-|
  -----------------------------------------6-x-x-x-6--6-6-x-x-----------------|


Intro Riff

e|-7h10-x-7-x-5-7-x-------------7h10-x-7-x-5-7-x----------------|
B|-----------------7-x-7h10-x-x------------------8-x-8h10-x-x---|
G|--------------------------------------------------------------|
D|--------------------------------------------------------------|
A|--------------------------------------------------------------|
E|--------------------------------------------------------------|
                                                                     X2
e|-7h10-x-7-x-5-7-x----------------7h10-x-7-x-5h7-7-7-7-7-7-7-7-|
B|-----------------7-x-7h10-x-x---------------------------------|
G|--------------------------------------------------------------|
D|--------------------------------------------------------------|
A|--------------------------------------------------------------|
E|--------------------------------------------------------------|


Ending

                                 (  Let all these notes Ring   )     
e|-----------------------------------------------------------7-----|
B|----------------------------------------------------7------7-----|
G|-----------------------------7---6----------------7--------7-----|
D|-5---x-x-5---5--5---4--2--4--7---6--------------7----------7-----|
A|-5---x-x-5---5--5---4--2--4--5---4------------9------------9-----|
E|-3---x-x-3---3--3---2--0--2-----------------7--------------7-----|
Comments