Incubus - Summer Romance Chords & Tabs

 

Summer Romance Chords & Tabs

Incubus Chords & Tabs

Version: 4 Type: Tab 0 ratings
1 star 2 stars 3 stars 4 stars 5 stars
comments

Summer Romance Tab

   
Incubus- Summer Romance


h=hammer

The first note of each hammer is really short.Repeat The first half of this twice then go on to second line.
[ Tab from: http://www.guitartabs.cc/tabs/i/incubus/summer_romance_tab_ver_4.html ]
E--11h13--11--9h11--6--6h8-------11h13--11--9h11--7--7h9--
A--11h13--11--9h11--6--6h8-------11h13--11--9h11--7--7h9--
D---------------------------------------------------------
G---------------------------------------------------------
B---------------------------------------------------------
E---------------------------------------------------------

E--11h13--9h11--7h9--4h6-----------------
A--11h13--9h11--7h9--4h6-----------------
D----------------------------------------
G----------------------------------------
B----------------------------------------
E----------------------------------------

That's it... Enjoy!
Comments