Incubus - Summer Romance Chords & Tabs

 

Summer Romance Chords & Tabs

Incubus Chords & Tabs

Version: 2 Type: Bass Tab 0 ratings
1 star 2 stars 3 stars 4 stars 5 stars
comments

Summer Romance Bass Tab

   
Song: Summer Romance (Anti-Gravity Love Song)
Artist: Incubus
Album: S.C.I.E.N.C.E.
Tabbed By: L.A.

Dirk Lance uses a 5 string. This is written for 4 string, but there's only 
one note you can't play if you use a 4 string, indicated by "B-X"; doesn't 
change the song at all.
Tuning Eb

Intro
Gb|-----------5-5-7-5--8-8-8-10-7-|
Db|-------5-5---------------------|
Ab|-3-3---------------------------|
Eb|-------------------------------|
	B-X

Verse (x4) or an octave higher at:
Gb|-------------|		|----12--------|
Db|-------------|		|-10----8--8-9-|
Ab|---10--------|		|--------------|
Eb|-9----7--7-8-|		|--------------|

Verse Fills
Gb|---10-10-8-8-10-10-||---10-----10---|
Db|-8-----------------||-8----8-8----8-|
Ab|-------------------||---------------|
Eb|-------------------||---------------|

Pre Chorus "When we get there..."
Gb|------------------------------------------|------------|
Db|------/10-/10-8--------55-8p5-------------|------------|
Ab|-8-8-8----------6-6-66-------h6-----------|-11-11-11\8-|
Eb|--------------------------------77777h8h9-|------------|
[ Tab from: http://www.guitartabs.cc/tabs/i/incubus/summer_romance_btab_ver_2.html ]
Gb|------------10---------------------------------------|
Db|----/10-/10-------------8-5--------------------------|
Ab|-8-8-----------8\6-6-66-----6--------------------13\-|
Eb|------------------------------777777/8/9-9999999-----|

Chorus "Anti-Gravity..."
-Verse x4 w/ Fill 1
-Verse x4 w/ Fill:
Gb|---------------------------|-----|
Db|---------------------------|-----|
Ab|----------------6-5-333333-|-13\-|
Eb|-4-4-4-4--3-2-3------------|-----|

Play verse again, prechorus, and chorus
Interlude
Gb|-----------------------------5-5-5-5-|			|----1-1-3-3-5-5-|
Db|-------------------------------------| then verse 	|3-3-------------| 
then verse
Ab|-333333-333333-333333-333333---------| riff x4	|----------------| riff x4
Eb|-------------------------------------|			|----------------|
  (pop)

Gb|---------|
Db|-----8---| then prechorus riff 1
Ab|---8---8-|
Eb|-7-------|

Outro (from prechorus riff 1)
Gb|----------------------10------10----------------------------------|
Db|-------------------10---10-10----10------------8-5----------------|
Ab|-11-11-11-10-9-8-8-------------------8-/6-6-66-----6-------333333-|
Eb|-----------------------------------------------------77777--------|
	End with chorus

Questions, comments, etc. L_A_H@hotmail.com
Comments