Incubus - Stellar Chords & Tabs

 

Stellar Chords & Tabs

Incubus Chords & Tabs

Version: 9 Type: Tab 0 ratings
1 star 2 stars 3 stars 4 stars 5 stars
comments

Stellar Tab

Name: Charles Graham Stewart

Tabs: Band:Incubus
Album:Make Yourself
Song:Stellar
Tabbed By: gramdacracker@yahoo.com
Tuning:(standard)EBGDAE

You are stellar

E-----------------------------------------------------------------------------------------------
A-----------5/7--7^--------------------------------------5/7--7^-----------------------------
D-------4--4/6--6^----6^----------------------------4--4/6--6^----6^----------------------
G-----------------------6^--6-------6-6---6-7-----------------------6^--6-------6-6---6-7-
B----0--------------------------4-4------7--------0--------------------------4-4------5------
E------------------------------------------------------------------------------------------------
             Meet me in outer___________space

E-----------------------------------------------------------------------------------------------
A-----------5/7--7^--------------------------------------5/7--7^-----------------------------
D-------4--4/6--6^----6^----------------------------4--4/6--6^----6^----------------------
G-----------------------6^--6-------6-6---6-7-----------------------6^--6-------6-6---6-7-
B----0--------------------------4-4------7--------0--------------------------4-4------5------
E------------------------------------------------------------------------------------------------
    We could spend the ____________night                 Watch the 
earth come up
E-----------------------------------------------------------------------------------------------
A-----------5/7--7^--------------------------------------5/7--7^-----------------------------
D-------4--4/6--6^----6^----------------------------4--4/6--6^----6^----------------------
G-----------------------6^--6-------6-6---6-7-----------------------6^--6-------6-6---6-7-
B----0--------------------------4-4------7--------0--------------------------4-4------5------
E------------------------------------------------------------------------------------------------
          I ve grown tired of that ________place                           
wont you come with me
E-----------------------------------------------------------------------------------------------
A-----------5/7--7^--------------------------------------5/7--7^-----------------------------
D-------4--4/6--6^----6^----------------------------4--4/6--6^----6^----------------------
G-----------------------6^--6-------6-6---6-7-----------------------6^--6-------6-6---6-7-
B----0--------------------------4-4------7--------0--------------------------4-4------5------
E------------------------------------------------------------------------------------------------
          We could start again______________________


E-----------------------------------------------------------------------------------------------
A----------------------------------------------------------------------------------------------
D---7-7-7-7-7-7-7-7-7-7-7-7-7---------4-4-4-4-4-4-4-4-4-4-----4-4---4-4----------
G---7-7-7-7-7-7-7-7-7-7-7-7-7---------4-4-4-4-4-4-4-4-4-4-----4-4---4-4----------
B---5-5-5-5-5-5-5-5-5-5-5-5-5---------2-2-2-2-2-2-2-2-2-2-----2-2---2-2----------
E----------------------------------------------------------------------------------------------
Again_______________________________________________________

E----------------------------------------------------------------------------------------------
A----------------------------------------------------------------------------------------------
D----------------------------------------------------------------------------------------------
G----7-7-7--7---7-7--------6-6------6---7-7-7--7---7-7--------6-6-----6-7------------
B----7-7-7--7---7-7---4-4------7-7------7-7-7--7---7-7---4-4-------5-----------------
E----5-5-5--5---5-5-----------------------5-5-5--5---5-5---------------------------------
How do you do it?                Make me feel like I do

E----------------------------------------------------------------------------------------------
A----------------------------------------------------------------------------------------------
D----------------------------------------------------------------------------------------------
G----7-7-7--7---7-7--------6-6------6---7-7-7--7---7-7--------6-6-----6-7------------
B----7-7-7--7---7-7---4-4------7-7------7-7-7--7---7-7---4-4-------5-----------------
E----5-5-5--5---5-5-----------------------5-5-5--5---5-5---------------------------------
How do you do it?               Its better than i ever knew          
oh_______

E-----------------------------------------------------------------------------------------------
A-----------5/7--7--------5/2--2---------5/7--7-----------5/2--2---------------------------
D------4---4/6--6-----4--4/1--1-----4---4/6--6-----4----4/1--1---------------------------
G-----------------------------------------------------------------------------------------------
B-----------------------------------------------------------------------------------------------
E-----------------------------------------------------------------------------------------------


E-----------------------------------------------------------------------------------------------
A-----------5/7--7^--------------------------------------5/7--7^-----------------------------
D-------4--4/6--6^----6^----------------------------4--4/6--6^----6^----------------------
G-----------------------6^--6-------6-6---6-7-----------------------6^--6-------6-6---6-7-
B----0--------------------------4-4------7--------0--------------------------4-4------5------
E------------------------------------------------------------------------------------------------
             Meet me in outer___________space

E-----------------------------------------------------------------------------------------------
A-----------5/7--7^--------------------------------------5/7--7^-----------------------------
D-------4--4/6--6^----6^----------------------------4--4/6--6^----6^----------------------
G-----------------------6^--6-------6-6---6-7-----------------------6^--6-------6-6---6-7-
B----0--------------------------4-4------7--------0--------------------------4-4------5------
E------------------------------------------------------------------------------------------------
       I will hold you________close                         If you're 
afraid of heights

E-----------------------------------------------------------------------------------------------
A-----------5/7--7^--------------------------------------5/7--7^-----------------------------
D-------4--4/6--6^----6^----------------------------4--4/6--6^----6^----------------------
G-----------------------6^--6-------6-6---6-7-----------------------6^--6-------6-6---6-7-
B----0--------------------------4-4------7--------0--------------------------4-4------5------
E------------------------------------------------------------------------------------------------
I need you to see this____________place           It might be the only 
way

E-----------------------------------------------------------------------------------------------
A-----------5/7--7^--------------------------------------5/7--7^-----------------------------
D-------4--4/6--6^----6^----------------------------4--4/6--6^----6^----------------------
G-----------------------6^--6-------6-6---6-7-----------------------6^--6-------6-6---6-7-
B----0--------------------------4-4------7--------0--------------------------4-4------5------
E------------------------------------------------------------------------------------------------
That I can show you____________how                                          
It feels to be in
[ Tab from: http://www.guitartabs.cc/tabs/i/incubus/stellar_tab_ver_9.html ]
E-----------------------------------------------------------------------------------------------
A----------------------------------------------------------------------------------------------
D---7-7-7-7-7-7-7-7-7-7-7-7-7---------4-4-4-4-4-4-4-4-4-4-----4-4---4-4----------
G---7-7-7-7-7-7-7-7-7-7-7-7-7---------4-4-4-4-4-4-4-4-4-4-----4-4---4-4----------
B---5-5-5-5-5-5-5-5-5-5-5-5-5---------2-2-2-2-2-2-2-2-2-2-----2-2---2-2----------
E----------------------------------------------------------------------------------------------
Side__________________________   Of you_______________________

E----------------------------------------------------------------------------------------------
A----------------------------------------------------------------------------------------------
D----------------------------------------------------------------------------------------------
G----7-7-7--7---7-7--------6-6------6---7-7-7--7---7-7--------6-6-----6-7------------
B----7-7-7--7---7-7---4-4------7-7------7-7-7--7---7-7---4-4-------5-----------------
E----5-5-5--5---5-5-----------------------5-5-5--5---5-5---------------------------------
How do you do it?                Make me feel like I do

E----------------------------------------------------------------------------------------------
A----------------------------------------------------------------------------------------------
D----------------------------------------------------------------------------------------------
G----7-7-7--7---7-7--------6-6------6---7-7-7--7---7-7--------6-6-----6-7------------
B----7-7-7--7---7-7---4-4------7-7------7-7-7--7---7-7---4-4-------5-----------------
E----5-5-5--5---5-5-----------------------5-5-5--5---5-5---------------------------------
How do you do it?               Its better than i ever knew                 
oh___

E----------------------------------------------------------------------------------------------
A----------------------------------------------------------------------------------------------
D----------------------------------------------------------------------------------------------
G----7-7-7--7---7-7--------6-6------6---7-7-7--7---7-7--------6-6-----6-7------------
B----7-7-7--7---7-7---4-4------7-7------7-7-7--7---7-7---4-4-------5-----------------
E----5-5-5--5---5-5-----------------------5-5-5--5---5-5---------------------------------
How do you do it?                Make me feel 
________________________________

E----------------------------------------------------------------------------------------------
A----------------------------------------------------------------------------------------------
D----------------------------------------------------------------------------------------------
G----7-7-7--7---7-7--------6-6------6---7-7-7--7---7-7--------6-6-----6-7------------
B----7-7-7--7---7-7---4-4------7-7------7-7-7--7---7-7---4-4-------5-----------------
E----5-5-5--5---5-5-----------------------5-5-5--5---5-5---------------------------------
  Like____________- I____________ Do____________________

E------------------------------------------------------------------------------------------0--
A------------------------------------------------------------------------------------------0--
D-----------------------------------------------0---------------------------------------------
G-------------0--0---------0--0---------0-----0--------2---2--------2--2--------2--------
B----------0--------0----0------0----0----0----------2-------2----2------2---0-----0----
E-----5---------------5------------3---------------0-------------0-----------3-------------
                                              i do                               
oh_____________uh uh______

E------------------------------------------------------------------------------------------0--
A------------------------------------------------------------------------------------------0--
D-----------------------------------------------0---------------------------------------------
G-------------0--0---------0--0---------0-----0--------2---2--------2--2--------2--------
B----------0--------0----0------0----0----0----------2-------2----2------2---0-----0----
E-----5---------------5------------3---------------0-------------0-----------3-------------
You are stellar______________________ You are stellar__________________


E----------------------------------------------------------------------------------------------
A----------------------------------------------------------------------------------------------
D----------------------------------------------------------------------------------------------
G----7-7-7--7---7-7--------6-6------6---7-7-7--7---7-7--------6-6-----6-7------------
B----7-7-7--7---7-7---4-4------7-7------7-7-7--7---7-7---4-4-------5-----------------
E----5-5-5--5---5-5-----------------------5-5-5--5---5-5---------------------------------
How do you do it?                Make me feel like I do

E----------------------------------------------------------------------------------------------
A----------------------------------------------------------------------------------------------
D----------------------------------------------------------------------------------------------
G----7-7-7--7---7-7--------6-6------6---7-7-7--7---7-7--------6-6-----6-7------------
B----7-7-7--7---7-7---4-4------7-7------7-7-7--7---7-7---4-4-------5-----------------
E----5-5-5--5---5-5-----------------------5-5-5--5---5-5---------------------------------
How do you do it?               Its better than i ever knew
E----------------------------------------------------------------------------------------------
A----------------------------------------------------------------------------------------------
D----------------------------------------------------------------------------------------------
G----7-7-7--7---7-7--------6-6------6---7-7-7--7---7-7--------6-6-----6-7------------
B----7-7-7--7---7-7---4-4------7-7------7-7-7--7---7-7---4-4-------5-----------------
E----5-5-5--5---5-5-----------------------5-5-5--5---5-5---------------------------------
How do you do it?             Make me feel like I do
E----------------------------------------------------------------------------------------------
A----------------------------------------------------------------------------------------------
D----------------------------------------------------------------------------------------------
G----7-7-7--7---7-7--------6-6------6---7-7-7--7---7-7--------6-6-----6-7------------
B----7-7-7--7---7-7---4-4------7-7------7-7-7--7---7-7---4-4-------5-----------------
E----5-5-5--5---5-5-----------------------5-5-5--5---5-5---------------------------------
How do you do it?                Make me feel 
________________________________

E----------------------------------------------------------------------------------------------
A----------------------------------------------------------------------------------------------
D----------------------------------------------------------------------------------------------
G----7-7-7--7---7-7--------6-6------6---7-7-7--7---7-7--------6-6-----6-7------------
B----7-7-7--7---7-7---4-4------7-7------7-7-7--7---7-7---4-4-------5-----------------
E----5-5-5--5---5-5-----------------------5-5-5--5---5-5---------------------------------
  Like____________- I____________ Do____________________

E-----------------------------------------------------------------------------------------------
A-----------------------------------------------------------------------------------------------
D-----------------------------------------------------------------------------------------------
G-------6-6-----------6-7------9-------------------------------------------------------------
B-------------4-4--5-----------7--------------------------------------------------------------
E--------------------------------5-------------------------------------------------------------
                                                   Yeah

---------------------------------------------------------------------------
Comments