Incubus - Stellar Chords & Tabs

 

Stellar Chords & Tabs

Incubus Chords & Tabs

Version: 3 Type: Tab 0 ratings
1 star 2 stars 3 stars 4 stars 5 stars
comments

Stellar Tab

   
Artist: Incubus
Song: Stellar
Album: Make Yourself | Year: 1999
Tab Author: Shehzaad Jiwani [weirdest name ever]
Tuning: E A D G B E [Standard]
Credits: incubusonline.com

This is my first tab ever, so don't complain if it sucks, ok? :) This is one
of my favourite songs, and it's really easy to play, and it just takes a little
bit of time to memorize, that's all. Credit goes to www.incubusonline.com for
the bridge part, but the rest I figured out myself, I swear! :P Have fun.

Verse One:
E|------------------------------------------------------------------------
B|------------------------------------------------------------------------
G|---9--9--/--11--/--9--6--/--8--/--6-------------------------------------
D|--9---9--/--11--/--9--6--/--8--/--6--6-----6-6---6-7--------------------
A|-0-------------------------------------4-4-----5------------------------
E|------------------------------------------------------------------------

E|------------------------------------------------------------------------
B|------------------------------------------------------------------------
G|---9--9--/--11--/--9--6--/--8--/--6-------------------------------------
D|--9---9--/--11--/--9--6--/--8--/--6--6-----6-6-----6--------------------
A|-0-------------------------------------4-4-----7-7---4------------------
E|------------------------------------------------------------------------

Repeat these two together four times, and that's verse one.
Right after you finish the eighth riff, go right into the pre-chorus.

Pre-Chorus:
E|-----------
B|-----------
G|-7---------
D|-7---------     Repeat this power chord
A|-5---------     about 13 or 14 times,
E|-----------     listen to the song.

E|-----------
B|-----------
G|-4---------     Then repeat this one 13
D|-4---------     or 14 times too.
A|-2---------     I'm just a lazy guy.
E|-----------

Chorus:
E|------------------------------------------------------------------------
B|------------------------------------------------------------------------
G|-----------66---------------------66------------------------------------     Repeat once.
D|-77-x-77-x-66-66-22-66--77-x-77-x-66-66-0-6-7---------------------------
A|-77-x-77-x-44-66-22-66--77-x-77-x-44-66-0-6-7---------------------------
E|-55-x-55-x----44-00-44--55-x-55-x----44-0-4-5---------------------------
[ Tab from: http://www.guitartabs.cc/tabs/i/incubus/stellar_tab_ver_3.html ]
Post-Chorus:
E|-------------------------
B|-------------------------
G|---9-/-11-11-----9-/-6---      Repeat once.
D|--9--/-11-11----9--/-6---
A|-0-------------0---------
E|-------------------------

Verse 2:
E|------------------------------------------------------------------------
B|------------------------------------------------------------------------
G|---9--9--/--11--/--9--6--/--8--/--6-------------------------------------
D|--9---9--/--11--/--9--6--/--8--/--6--6-----6-6-----6--------------------
A|-0-------------------------------------4-4-----7-7---4------------------
E|------------------------------------------------------------------------

E|------------------------------------------------------------------------
B|------------------------------------------------------------------------
G|---9--9--/--11--/--9--6--/--8--/--6-------------------------------------
D|--9---9--/--11--/--9--6--/--8--/--6--6-----6-6---6-7--------------------
A|-0-------------------------------------4-4-----5------------------------
E|------------------------------------------------------------------------

Repeat the same way as the first chorus, then go into the pre-chorus and so on.
The special thing with the second chorus is that it's repeated halfway, then it goes straight into the bridge.
If you have a wah-wah peddal, use it for the bridge. It sounds good with/without.

Bridge:
E|------------------------------------------------------------------------
B|------------------------------------------------------------------------
G|-----------------------0----------------------------------0-------------
D|---0-0-----0-0------0--0-----0-0-------2-2-----2-2------5-5-----5-5-----      Repeat once, go straight
A|--7---7-7-7---7-7--5---5----5---5-5---2---2-2-2---2-2--5--5----5---5-5--      into chorus.
E|-5-----5-5-----5--3----3-3-3-----3---0-----0-0-----0--3---3-3-3-----3---

Ending Chorus:
E|------------------------------------------------------------------------
B|------------------------------------------------------------------------
G|-----------66---------------------66------------------------------------
D|-77-x-77-x-66-66-22-66--77-x-77-x-66-66-0-6-7---------------------------
A|-77-x-77-x-44-66-22-66--77-x-77-x-44-66-0-6-7---------------------------
E|-55-x-55-x----44-00-44--55-x-55-x----44-0-4-5---------------------------
Repeat once, then add an extra...
E|-------------
B|-------------
G|-66----------
D|-66-66-0-6-7-
A|-44-66-0-6-7-
E|----44-0-4-5-
Then end off with this, and let it ring.......
E|-----
B|----
G|----
D|-9--
A|-7--
E|-5--

That's about it, if you have any complaints, comments,
praise to give me, send it to strider-squall@hotmail.com,
or ICQ me @ 33312210
Thank you, drive through...
Dirk Lithium (01.03.00)
Comments