Incubus - Stellar Chords & Tabs

 

Stellar Chords & Tabs

Incubus Chords & Tabs

Version: 12 Type: Tab 0 ratings
1 star 2 stars 3 stars 4 stars 5 stars
comments

Stellar Tab

Artist:Incubus
Song:Stellar
Tabed by:BlinkSG(Justin Huling)

Im 99.9% sure about the chorus(I don't know if its book right)but I 
know it sounds really good to perfect. I tabed this song with help
from a friend and the Incubus:Morning View Sessions DVD. 

Intro and Verses
|---------------------------------------------------------------------|
|---------------------------------------------------------------------|
|----9/11-11b-6b--------------------9/11-11b-6b-----------------------|
|--9-9/11-11b-6b-6-----6-6---6-7--9-9/11-11b-6b-6-----6-6------6------|
|-0---------------4-4-----5------0---------------4-4------7-7---------|
|---------------------------------------------------------------------|

[ Tab from: http://www.guitartabs.cc/tabs/i/incubus/stellar_tab_ver_12.html ]
Chorus(we could start a....)    How do you do it.........
|-----------------------------------------------------------|
|-------------------------------00-x-00---------------------|
|---77--7777777--4444444--------22-x-22---------------------|
|---77--7777777--4444444--------22-x-22---------------------|
|---55--5555555--2222222--------00-x-00--------6--6----6--7-|     
|---55--5555555--2222222--------00-x-00---4--4-------5------|
                                                                     
  Does this part ^ twice first and | twice 2nd for first chorus                                             
                                   | 
|---------------------------------------------------|
|-00-x-00-------------------------------------------|
|-22-x-22-------------------------------------------|
|-22-x-22--------66----6-7--------------------------|
|-00-x-00-----66-44--7-4-5--------------------------|
|-00-x-00-----44-----5------------------------------|



Little bridge after chorus
|--------------------------------------|
|--------------------------------------|
|--------------------------------------|
|------9/11---------9\6----------------|
|---9--9-11------9--9\6----------------|
|--0------------0----------------------|


Interlude(I tabbed only 50% of this)
|-------------------------------------------------------0-
|-------------------------------------------------------0-
|-------------------------------------------------------4-
|---0--0------0--0-------0-0----2-2------2-2-----7------7-
|--7----7----7----7-----5--5---2---2----2---2---5-5-------
|-5------5--5------5/3-3---3--0-----0--0-----0-3----------


All the rest of the parts I have tabbed you just have to know what 
order to put them in. Questions PM me or e-mail at blinksg@atlantic.net
Comments