Incubus - Stellar Chords & Tabs

 

Stellar Chords & Tabs

Incubus Chords & Tabs

Version: 1 Type: Tab 0 ratings
1 star 2 stars 3 stars 4 stars 5 stars
comments

Stellar Tab

Band:Incubus
Song:Stellar
Album:Make yourself
Transcribed by:Tyler Sartin

Verse

E --------------------------------------------------------
B ----------5/7--7b---------------------------------------
G ---4------4/6--6b-----6b--------------------------------
D ----------------------6b----6--------6--6------6--7-----
A -0----------------------------4---4--------5------------
E --------------------------------------------------------

E --------------------------------------------------------
B ----------5/7--7b---------------------------------------
G ---4------4/6--6b-----6b--------------------------------
D ----------------------6b----6--------6--6----------6----
A -0----------------------------4---4--------7---7--------
E --------------------------------------------------------
Repeat until pre-chorus

Pre-Chorus

E --------------------------------------------------------
B --------------------------------------------------------
G ---7--7--7----7--7--7--7----7--7--7--7--7---------------
D ---7--7--7----7--7--7--7----7--7--7--7--7---------------
A ---5--5--5----5--5--5--5----5--5--5--5--5---------------
E --------------------------------------------------------
[ Tab from: http://www.guitartabs.cc/tabs/i/incubus/stellar_tab.html ]
E --------------------------------------------------------
B --------------------------------------------------------
G ---4--4--4----4--4--4--4----4--4--4--4--4---------------
D ---4--4--4----4--4--4--4----4--4--4--4--4---------------
A ---2--2--2----2--2--2--2----2--2--2--2--2---------------
E --------------------------------------------------------


Chorus

E --------------------------------------------------------
B --------------------------------------------------------
G --------------------------------------------------------
D --7--x-7--7--7--7-----------6--6----------6-------------
A --7--x-7--7--7--7----4--4----------7--7-----------------
E --5--x-5--5--5--5---------------------------------------


E --------------------------------------------------------
B --------------------------------------------------------
G --------------------------------------------------------
D --7--x-7--7--7--7-----------6--6-------6--7-------------
A --7--x-7--7--7--7----4--4----------5--------------------
E --5--x-5--5--5--5---------------------------------------


Bridge

E --------------------------------------------------------
B --------------------------------------------------------
G -----------------------------------------------------0--
D ------2--0----0--2-----------2--0----0--2----------0-0--
A --0------------------0---0------------------0----5---5--
E -----------------------------------------------3-----3--

E -----------------------------------------------------0--
B -----------------------------------------------------0--
G ------------------------------------------------2-------
D --------2----2---------------2----2----------0-----0----
A ----2------------2-------2------------2-----------------
E -0------------------0--0----------------0--3------------


Thats pretty much it.  If you have any questions email me at tylersartin@hotmail.com

Comments