Incubus - Stellar Chords & Tabs

 

Stellar Chords & Tabs

Incubus Chords & Tabs

Version: 4 Type: Bass Tab 0 ratings
1 star 2 stars 3 stars 4 stars 5 stars
comments

Stellar Bass Tab

   
----------------------------------------------------------------------------
			     STELLAR - Incubus
----------------------------------------------------------------------------
Tabbed By : Matt 
e-mail: spacedout11x@yahoo.com
This is exactly how Dirk plays it on the MV sessions DVD. This tab is 100% correct.
Tuning: Standard BEADG



VERSE 1
G|-----------|
D|-----------|
A|-----------|
E|-55-----99-|
B|-----------|

PRECHORUS
G|-------------------------------------------------------------|
D|-------------------------------------------------------------|
A|-------------------------------------------------------------|
e|-10-10-10-10-10-10-10-10-10-10-10-10-7-7-7-7-7-7-7-7-7-7-7-7-|
B|-------------------------------------------------------------|

CHORUS
G|----------------------------------------------------------------|
D|----------------------------------------------------------------|
A|-----------------11-11-------11------------------11-11----11-12-|
E|-5-5----5-5--9-9-------12-12----5-----5-5-5--9-9-------11-------|
B|----------------------------------------------------------------|
[ Tab from: http://www.guitartabs.cc/tabs/i/incubus/stellar_btab_ver_4.html ]
BREAK
G|-------------------------------------------------------------------------|
D|------7--7----------------9h10h9---------------7--7-----------------9h10-|
A|----7--7--7------///10h12-------9h10h9\\\-----7--7--7-------///10h12-----|
E|-55--------5\\\---------------------------55---------5\\\----------------|
B|-------------------------------------------------------------------------|

VERSE 2
G|----------------------------------------|
D|----------------------------------------|
A|----------------------------------11-12-|
E|-5-5-----9-9-----5-5-----9-9---10-------|
B|----------------------------------------|

BRIDGE
G|----------------------------|
D|----------------------------|
A|----------------------------|
E|-5-----5-3---3-0-----0-3----|  
B|----------------------------|

G|------------------------------------------------------------------------|
D|------------------------------------------------------------------------|
A|------------------------------------------------------------------------|
E|////17----17-15----15-12----12-3---3-3-3/////15-15-15-15-15-15-15-15-15-|
B|------------------------------------------------------------------------|

| /  slide up
| \  slide down
| h  hammer-on
| p  pull-off
| ~  vibrato
| +  harmonic
| x  Mute note
============================================================================
Comments