Incubus - Stellar Chords & Tabs

 

Stellar Chords & Tabs

Incubus Chords & Tabs

Version: 3 Type: Bass Tab 0 ratings
1 star 2 stars 3 stars 4 stars 5 stars
comments

Stellar Bass Tab

   
Artist: Incubus
Song: Stellar
Album: Make Yourself
Tabbed By: Dromar


Tuning- E, A, D, G
h= hammer on 
p= pull off
/= slide down

First Verse
G--------------------------------   
D--------------------------------
A--------------------------------
E---55-----99---------55-------99

Prechorus
G--------------------------------   
D--------------------------------
A---5-55-55-5555-222-2-222-2222--
E--------------------------------

1st Chorus
G-----------------------------------------------  
D--------------6-7-6----6-------------6-7-6--6-7
A-----------4--------77------------4--------7---
E---55-55------------------55-55----------------

Interlude
G---------------------------------------------- 
D-----------7-7-7--------7--9h10p9-------------
A--00------7-7-7------------------9h10p9-------
E------------------5/--------------------------

G----------------------------------------------
D-----------7-7-7--------7--9h10p9/------------
A--00------7-7-7-------------------------------
E------------------5/--------------------------
[ Tab from: http://www.guitartabs.cc/tabs/i/incubus/stellar_btab_ver_3.html ]
Second Verse
G--------------------------------------------  
D--------------------------------------------
A---------------------------------------11-12
E---55-----99---------55-------99----12------

Part of Chorus before bridge
G---------------------------------------------- 
D----------------------------------------------
A----------0-4-0------------------0-4-0--------
E---55-55-------4-0-0-4----55-55-------4-0-4-5

Bridge (these are just the root notes feel free to fill in with repeated notes)
G----------------------------------------  
D----------------------------------------
A----------------------------------------
E---5----------3------------0-----------3
before last chorus repeat the 3rd fret of E

Last Chorus
G-----------------------------------------------  
D--------------6-7-6----6-------------6-7-6--6-7
A-----------4--------77------------4--------7---
E---55-55------------------55-55----------------

Last part of chorus
G---------------------------------------------- 
D----------------------------------------------
A----------0-4-0------------------0-4-0--------
E---55--55-------4-0-0-4----55-55-------4-0-4-5


Order:
1st Verse 2x
Prechorus 1x
1st Chorus 2x
Interlude 1x
Second Verse 4x
Prechorus 1x
Regular Chorus 2x
Before Bridge Chorus 1x
Bridge 2x
Regular Chorus 2x
Last Part of Chorus 2x
repeat last part as needed

any questions e-mail me at dromar25@hotmail.com
Comments