Incubus - Speak Free Chords & Tabs

 

Speak Free Chords & Tabs

Incubus Chords & Tabs

Version: 3 Type: Bass Tab 0 ratings
1 star 2 stars 3 stars 4 stars 5 stars
comments

Speak Free Bass Tab

This song is great. I lov the intro, sounds so cool. first of : this is not the
first time I tabbed a song (sum people use it as an excuse of the tab beeing
slighly wrong) but there might be somehing wrong.

Intro

----------------------------------------------
----------------------------------------------
-7-6-5---5---------------------7--------------
-------7---7-6-5-3-6-5-3-5-3-0----------------
[ Tab from: http://www.guitartabs.cc/tabs/i/incubus/speak_free_btab_ver_3.html ]
Funky bass bit
(This is kind of hard when u play it the first time but easy to get in to)
s=slap
p=pop
h=hammer on
-----------------7-------9----------------------------------
-------5/7------------------------5/7-------7-------5-------
---5/7-----0-5-5---0-7-7------5/7---------------------------
-0--------------------------0---------0-5-5---0-3-3---------
 s p h p h s h s p s h s p  s p h p h s h s p s h s p

then comes this during the "...public eye blabla" bit not sure if its right though
---7-5-----------------------------------------------------
-------------7-5-------------------------------------------
-5-----555-------------------------------------------------
-----------5-----555---------------------------------------
 s p p sss s p p sss

slow bit (not sure) :-)
---------------------------------------------------------------
-----1-2-------------------------------------------------------
-2-0-----0-2-3-4---------0-2-3-4-------------------------------
-----------------0-2-3-4---------------------------------------

Thanks

Da FuNk BaSsIsT
Comments