Incubus - Speak Free Chords & Tabs

 

Speak Free Chords & Tabs

Incubus Chords & Tabs

Version: 1 Type: Bass Tab 0 ratings
1 star 2 stars 3 stars 4 stars 5 stars
comments

Speak Free Bass Tab

   
BAND: Incubus
SONG: Speak Free
TABLATURE: Guitar/Bass
TABBED BY: Nathan Sherrer (chenchila1@aol.com)
----------------------------------------------------------------

	THIS IS A TAB FOR SPEAK FREE OFF OF FUNGUS AMOUNGUS.THESE ARE ALL 
OF THE RIFFS IN THE SONG.I DINT PUT THEM IN ORDER BUT ITS EASY TO FIGURE 
IT OUT BY YOURSELF. THE ONLY PART I COULDNT FIGURE OUT IS THE BASS PART 
DURING THE QUIET INTERLUDE PART. NOTE THAT THIS TAB INCLUDES BOTH BASS 
AND GUITAR PARTS.
~~~~~~~~~~~~~~~~~~~~~~~~~~~~~~~~~~~~~~~~~~~~~~~~~~~~~~~~~~~~~~~~~~~~~~~~
h=hammer on
p=pull off
/=slide
~=let ring

INTRO
e|----------------------|
b|----------------------|
g|----------------------|
d|----------------------|
a|765--5-------------7--|
e|---7---76536535p3p0---|
This part is played up an octave later on in the song.

THAT BADASS BASS PART
g|-----------7----7---------------------|
d|----5h7---------------5h7-----7-----7-|    
a|-5h7----0h5--0h5---5h7----------------|
e|0-----------------0-------0h5---0h5---|

FIRST RIFF
e|-------------------|
b|-------------------|
g|--9-7-7-9--9-7-----|
d|--9-7-7-9--9-7-7-5-|
a|--7-5-5-7--7-5-7-5-|
e|-0--------0----5-3-|
[ Tab from: http://www.guitartabs.cc/tabs/i/incubus/speak_free_btab.html ]
SECOND RIFF
e|---------------------------------------------------------------------|
b|---------------------------------------------------------------------|
g|---9-7-------9-7~-----9-7------9-------9-7--------9-7~-----9-7--~----|
d|-9-9-7-7~--9-9-7~---9-9-7-7~-9-9-7~---9-9-7-7~--9-9-7~---9-9-7-7~--9/|
a|-9-7-5-7~--9-7-5~---9-7-5-7~-9-7-7~---9-7-5-7~--9-7-5~---9-7-5-7~--9/|
e|-7-----5~--7--------7-----5~-7---5~---7-----5~--7--------7-----5~--7/|

FILL
e|----------------|
b|----------------|
g|----------------|
d|----5-------222-|
a|-5h7--7p5p0-222-|
e|------------000-|

During the interlude just play around with E's.I'm not sure how the bass 
part goes during this part but heres a guess:

g|-----------------|
d|0234-------------|
a|----0234----0234-|
e|--------0234-----|

The short part after the interlude
e|-------|
b|-------|
g|-9-7---|
d|-9-7-7-|
a|-7-5-7-|
e|-----5-|


The final part after the repeated fills
e|-1212121212121212------|
b|-----------------------|
g|-9-9-9-9-9-9-9-9-------|
d|-----------------2-2-2-|
a|-7-7-7-7-7-7-7-7-2-2-2-|
e|-----------------0-0-0-|
And then end on repeated E's.
~~~~~~~~~~~~~~~~~~~~~~~~~~~~~~~~~~~~~~~~~~~~~~~~~~~~~~~~~~~~~~~~~~~~~~~~
This tab was made by Nathan Sherrer. IF you have any corrections or crap 
to complain about email me at CHENchila1@aol.com



Comments