Incubus - Southern Girl Chords & Tabs

 

Southern Girl Chords & Tabs

Incubus Chords & Tabs

Version: 2 Type: Tab 0 ratings
1 star 2 stars 3 stars 4 stars 5 stars
comments

Southern Girl Tab

southern girl             tab by max


intro/verse

------5-5-5-5----3----------------5-5-5-5----3-------------------------|
------0-0-0-0----0----------------0-0-0-0----0-------------------------|
------5-5-5-5----5-1--------------5-5-5-5----5-------------------------|
--------5-5-5------2--0-------------5-5-5-------5-0--------------------|
----0---------0-3--2------------0---------0-3---3---3------------------|
--0----------------------1-1-0------------------------1p0--------------|


pre chorus

--5-5--5------5----------3---5----5------5--3---7--------------------|
--6-6--5-------5-------3--3--6--6--6------5-3----8---8---------------|
--7-7--5---5----5-----4-4----7---7--7---5---4--7--7--5-1--4----------|
0------7--7-7------7-5-------7--------------5--------7-2--5----------|
-----------------------------5-------------------------2--5----------|
-------------------------------------------------------0--3----------|

chorus (same as verse, but uses 3 chords at end)
[ Tab from: http://www.guitartabs.cc/tabs/i/incubus/southern_girl_tab_ver_2.html ]
------5-5-5-5----3----------------5-5-5-5----3----------------------------|
------0-0-0-0----0----------------0-0-0-0----0----------------------------|
------5-5-5-5----5-1--------------5-5-5-5----5--------------2-1-4---------|
--------5-5-5------2--0-------------5-5-5-------5-0---------3-2-5---------|
----0---------0-3--2------------0---------0-3---3---3-------3-2-5---------|
--0----------------------1-1-0------------------------1p0---1-0-3---------|

solo

------------------------------------------------------8--------8----------------------------|
-----------------------------5-5---8-10-8-10-8-10-8-10----8-10----7-5/4-4h5p4------5-7-5----|
--5/7--5-7-7-------------5-7--7-7----------------------9-9----9-9-------------5-5/7-----7-7-|
-------------5-5/2-2-2-2--------------------------------------------------------------------|
--------------------------------------------------------------------------------------------|
--------------------------------------------------------------------------------------------|

-------------|
-------7-----|
--7p5-5------|
--------7----|
-------------|
-------------|

outro
              (these parts below are repeated, listen and you'll get it)
-5----------0---------------0--------|
-6--5--5----5-5--5-7-5---5----7--5---|
-5-5-5--5---4--4----4---7-------4----|
-7----7--7--6---6---------6----------|
-------------------------------------|
-------------------------------------|
Comments