Incubus - Sick Sad Little World Chords & Tabs

 

Sick Sad Little World Chords & Tabs

Incubus Chords & Tabs

Version: 5 Type: Tab 0 ratings
1 star 2 stars 3 stars 4 stars 5 stars
comments

Sick Sad Little World Tab

Incubus - Sick Sad Little World 

This tab is the right parts of version 2 and version 1, but now correctly by me.

e|------------------------------------------------------------------------|
B|-------------------------------------------------0-0--------------------|
G|-------------------------------------------------4-4-x-1--1-1-x-x-------|
D|------------------4--------------2---------------2-2-x-2--2-2-x-x-4-4-4-|
A|-------4--4---------------0h2h4----4-2-0-2-4-----0-0-x-0--0-0-x-x-4-4-4-|
E|--0-4---4--4--0-4---4-0~~-----------------------------------------2-2-2-|

e|------------------------------------------------------------------------|
B|-------------------------------------------------0-0--------------------|
G|-------------------------------------------------4-4-x------------------|
D|------------------4--------------2---------------2-2-x--4-4-4-x-x-7-7-7-|
A|-------4--4---------------0h2h4----4-2-0-2-4-----0-0-x--4-4-4-x-x-7-7-7-|
E|--0-4---4--4--0-4---4-0~~-------------------------------2-2-2-x-x-5-5-5-|


[00:25](Every one hit double really fast)

e|-------------------------------------------------------------------------
B|-------------------------------------------------------------------------
G|-------------------------------------------------------------------------
D|-------------------------------------------------------11-11-11-11-------
A|-4-4-4-4----4-4-4-4---------------(2nd time through->(-11-11-11-11)------
E|---------------------5-5-5-5---2-2-2-2------0-0-0-0-0--------------------


[00:51]

  2X (strum chord once because the bass is playing chords) 
e|------------------------------------|
B|------------------------------------|
G|----------6-------------------------|
D|-4--2---4-6-6-7---------------------|
A|-4--4---4-4-6-7---------------------|
E|-2--4---2---4-5---------------------|

[02:56]                      
                              Wah/Wah  
e|------------------------------0~------|
B|------------------------------0~------|
G|------4--4-----4--4--4--------2~------|
D|------------------------------2~------|   Do it a couple of times
A|--2-4--4--4-2-4--4--4--4-2-4--0~------|
E|--------------------------------------|  


e|---------------------------------------------------------------|
B|---------------------------------------------------------------|
G|---------------------------------------------------------------|
D|-4/9~--9/11~-----11-13-11-13----11-13-11-13-11-13-14--9---(14)-|
A|---------------------------------------------------------------|
E|---------------------------------------------------------------|

[03:22]

e|-------------------------------------------------------------------------|
B|-------------------------------------------------------------------------|
G|-8/11\8--8/11\8---6/11\6----6h8p6-2h4--4/2-2-1-1--2--1h2p1---------------|
D|-------------------------------------------------------2--2/4--4---4/6-2-|
A|-------------------------------------------------------------------------|
E|-------------------------------------------------------------------------|

[ Tab from: http://www.guitartabs.cc/tabs/i/incubus/sick_sad_little_world_tab_ver_5.html ]
e|-12--12---------9------7------4--2h4p2p0h2---4-----------------------4-5-
B|-------9--9-7-----7\4----4\2-------------2/4-4/5--5\2--4p2-4/5-2-4-5-----
G|-------------------------------------------------------------------------
D|-------------------------------------------------------------------------
A|-------------------------------------------------------------------------
E|-------------------------------------------------------------------------

[03:45]

e|-5//---------------12----------------------------------0--0--0-0-0-0-0-|
B|-5//---12---------------12--------------------------5-/7--9--0-0-0-0-0-|
G|-----------------9-----------11-------------------6----------9-9/8-8/9-|
D|----------------------9-------------------------5----------------------|
A|---------------------------9-------------------------------------------|
E|---------------------------------9/7----7/9----------------------------|

[03:59]

                                                         pm.......
e|-12-14-------------------------------------14--12--14--12-14-12--20b--20b-
B|-------------------12-14-12-----12/14--12---------------------------------
G|---------11-13------------------------------------------------------------
D|--------------------------------------------------------------------------
A|--------------------------------------------------------------------------
E|--------------------------------------------------------------------------


e|-12/14--12--------------------------------------------------|
B|------------14-12---------------------12-14-12-------14-12--|
G|------------------11---11bbr----11-13-----------11b---------|
D|------------------------------------------------------------|
A|------------------------------------------------------------|
E|------------------------------------------------------------|

[04:18]

e|-------------------------------9--|
B|----5--------5--------5--------x--|
G|--6---6----6---6----6---6------6--|
D|--------5--------5--------5-------|
A|----------------------------------|
E|----------------------------------|

This part is picked really fast with echo and wah/wah
e|---9---7--12--14--16------------------------|
B|---------------------14-12--9--7------------|
G|--------------------------------------------|
D|--------------------------------------------|
A|--------------------------------------------|
E|--------------------------------------------|

                             turn effect off here
e|-11-12-11--9--11-12-14-16-14-16-12-16-12-16-12-|
B|-----------------------------------------------|
G|-----------------------------------------------|
D|-----------------------------------------------|
A|-----------------------------------------------|
E|-----------------------------------------------|

 p= pulloff
e|-16p-12------16p-12------16-16-12-19-19--------|
B|-------16p-12------16p-12----------------------|
G|-----------------------------------------------|
D|-----------------------------------------------|
A|-----------------------------------------------|
E|-----------------------------------------------|

e|--19p-14------19p-14------19-19-19-19-19-------|
B|--------19p-14------19p-14---------------------|
G|-----------------------------------------------|
D|-----------------------------------------------|
A|-----------------------------------------------|
E|-----------------------------------------------|

                              Wah/Wah  
e|------------------------------0~------|
B|------------------------------0~------|
G|------4--4-----4--4--4--------2~------|
D|------------------------------2~------|   Do it a couple of times
A|--2-4--4--4-2-4--4--4--4-2-4--0~------|
E|--------------------------------------| 

Song ends with main riff.
Comments